Stone Roses - Waterfall Chords & Tabs

 

Waterfall Chords & Tabs

Stone Roses Chords & Tabs

Version: 1 Type: Tab 0 ratings
1 star 2 stars 3 stars 4 stars 5 stars
comments

Waterfall Tab

   
#----------------------------------PLEASE NOTE---------------------------------#
#This file is the author's own work and represents their interpretation of the #
#song. You may only use this file for private study, scholarship, or research. #
#------------------------------------------------------------------------------#

From: "Benjamin J. Rubin" 

Stone Roses
Waterfall
as transcribed by "Rubes"

Riff #1                Riff #2            Bridge
                                          (use barred chords)
  F#       E   G6      C     Em    AaddB            
e------2-----------    --------------     Am          Bm
B----2---2---0-----    ----1-----0---   
G----------------4-    ------------2-     Am          Bm
D------------------    --2-----2-----            
A----------2---1---    3-----2-------     Am  G#m  Gm F#        
E--2---------------    --------------  

From: mockud@sage4b.its.rpi.edu (The Lethal Weapon)
[ Tab from: http://www.guitartabs.cc/tabs/s/stone_roses/waterfall_tab.html ]
Waterfall: Stone Roses.
        Hey this is what me and Brian (gribben@reseau.onecert.fr) got
so far for this song, along with some parts taken from Nevada by
-Josh Ronsen ronsen@gargoyle.uchicago.edu.  We 
just put it together to see if someone else could help us out by
filling in the blanks.   All help would be appreciated.
Thanks,
Darrell
mockud@rpi.edu

Main Riff (without variations)
     ---3------------3------------3--------     This is the main riff from
     ----33\1-1-0h1/3-33\1-1-0h1/3---------     the very beginning of the
     -0-------------0------------0---------     song, and repeated once here.
     --------------------------------------     In the actual song it is
     --------------------------------------     repeated several times. 
     --------------------------------------                   Brian

Interlude   (From nevada)
-5--5--------5--5------------------------------------
-8-----8-----8-----8---------------------------------
-7--------7--7--------7---7~--5~--2~--0~--------0~---
-5-----------5----------------------------2p0~-------
-5-----------5---------------------------------------
-----------------------------------------------------
-----------------------------------------3--3--3--3--
-----------------------------------------3--3--3--3--
2~--0~-------0~--2--4~--5--4--2--0-------5--5--5--5--
--------2p0~-----------------------------5--5--5--5--
-----------------------------------3h5p3-------------
-----------------------------------------------------
While this is going on there is another guitar doing some variations
with some wah sweeps.
Comments