Stone Roses - Waterfall Chords & Tabs


Waterfall Chords & Tabs

Stone Roses Chords & Tabs

Version: 1 Type: Tab 0 ratings
1 star 2 stars 3 stars 4 stars 5 stars

Waterfall Tab

#----------------------------------PLEASE NOTE---------------------------------#
#This file is the author's own work and represents their interpretation of the #
#song. You may only use this file for private study, scholarship, or research. #

From: "Benjamin J. Rubin" 

Stone Roses
as transcribed by "Rubes"

Riff #1                Riff #2            Bridge
                                          (use barred chords)
  F#       E   G6      C     Em    AaddB            
e------2-----------    --------------     Am          Bm
B----2---2---0-----    ----1-----0---   
G----------------4-    ------------2-     Am          Bm
D------------------    --2-----2-----            
A----------2---1---    3-----2-------     Am  G#m  Gm F#        
E--2---------------    --------------  

From: (The Lethal Weapon)
[ Tab from: ]
Waterfall: Stone Roses.
        Hey this is what me and Brian ( got
so far for this song, along with some parts taken from Nevada by
-Josh Ronsen  We 
just put it together to see if someone else could help us out by
filling in the blanks.   All help would be appreciated.

Main Riff (without variations)
     ---3------------3------------3--------     This is the main riff from
     ----33\1-1-0h1/3-33\1-1-0h1/3---------     the very beginning of the
     -0-------------0------------0---------     song, and repeated once here.
     --------------------------------------     In the actual song it is
     --------------------------------------     repeated several times. 
     --------------------------------------                   Brian

Interlude   (From nevada)
While this is going on there is another guitar doing some variations
with some wah sweeps.