Stone Roses - She Bangs The Drums Chords & Tabs

 

She Bangs The Drums Chords & Tabs

Stone Roses Chords & Tabs

Version: 1 Type: Bass Tab 1 rating
1 star 2 stars 3 stars 4 stars 5 stars
comments

She Bangs The Drums Bass Tab

"She Bangs The Drums"
			The Stone Roses
			From The album: "The Stone Roses"
			Tabbed by Craig Telfer


		Introduction (Cymbals And Bass)
G|---------------------------|---------------------------|
D|---------------------------|---------------------------|
A|---------------------------|---------------------------|
E|0-0-2-0-4-0-0-5-4-0-2-4-2-0|0-0-2-0-4-0-0-5-4-0-2-4-2-0|


		"Pre-Verse" (Guitar, Bass and Drums)
G|---------------------------|---------------------------|
D|---------------------------|---------------------------|
A|---------------------------|---------------------------|
E|0-0-2-0-4-0-0-5-4-0-2-4-2-0|0-0-2-0-4-0-0-5-4-0-2-4-2-0|



G|---------------------------|---------------------------|
D|---------------------------|---------------------------|
A|---------------------------|---------------------------|
E|0-0-2-0-4-0-0-5-4-0-2-4-2-0|0-0-2-0-4-0-0-5-4-0-2-4-2-0|



G|---------------------------|---------------------------|
D|---------------------------|---------------------------|
A|5-5-0--4-5-5-5-5-----------|5-5-0--4-5-5-5-5-----------|
E|---------------------------|---------------------------|



G|---------------------------|---------------------------|
D|---------------------------|---------------------------|
A|---------------------------|---------------------------|
E|0-0-2-0-4-0-0-5-4-0-2-4-2-0|0-0-2-0-4-0-0-5-4-0-2-4-2-0|



G|---------------------------|---------------------------|
D|---------------------------|---------------------------|
A|5-5-0--4-5-5-5-5-----------|5-5-0--4-5-5-5-5-----------|
E|---------------------------|---------------------------|



G|---------------------------|---------------------------|
D|---------------------------|---------------------------|
A|---------------------------|---------------------------|
E|0-0-2-0-4-0-0-5-4-0-2-4-2-0|0-0-2-0-4-0-0-5-4-0-2-4-2-0|



G|---------------------------|---------------------------|
D|---------------------------|---------------------------|
A|5-5-0--4-5-5-5-5-----------|5-5-0--4-5-5-5-5-----------|
E|---------------------------|---------------------------|



G|---------------------------|---------------------------|
D|---------------------------|---------------------------|
A|---------------------------|---------------------------|
E|0-0-2-0-4-0-0-5-4-0-2-4-2-0|0-0-2-0-4-0-0-5-4-0-2-4-2-0|


[ Tab from: http://www.guitartabs.cc/tabs/s/stone_roses/she_bangs_the_drums_btab.html ]
G|---------------------------|---------------------------|
D|---------------------------|---------------------------|
A|5-5-0--4-5-5-5-5-----------|5-5-0--4-5-5-5-5-----------|
E|---------------------------|---------------------------|



		Chorus
G|---------------------------|		G|---------------------------|
D|---------------------------|}		D|---------------------------|
A|0-0-0-2-4-5-5-5-4-2-4------|} x3	A|---------------------------|
E|---------------------------|		E|0-0-2-0-4-0-0-5-4-0-2-4-2-0|



G|---------------------------|		G|---------------------------|
D|---------------------------|}		D|---------------------------|
A|0-0-0-2-4-5-5-5-4-2-4------|} x3	A|---------------------------|
E|---------------------------|		E|0-0-2-0-4-0-0-5-4-0-2-4-2-0|




		Instrumental Break (Guitar, Bass, Drum)
G|---------------------------|---------------------------|
D|---------------------------|---------------------------|}
A|0-0-2-0-4-0-0-5-4-0-2-4-2-0|---------------------------|} x2
E|---------------------------|0-0-2-0-4-0-0-5-4-0-2-4-2-0|


G|---------------------------|---------------------------|
D|---------------------------|---------------------------|}
A|---------------------------|5-5-0--4-5-5-5-5-----------|} x2
E|0-0-0--0-0-0--0-0-0--0-0-0-|---------------------------|


		Chorus
G|---------------------------|       	G|---------------------------|
D|---------------------------|}		D|---------------------------|
A|0-0-0-2-4-5-5-5-4-2-4------|} x3	A|---------------------------|
E|---------------------------|		E|0-0-2-0-4-0-0-5-4-0-2-4-2-0|



G|---------------------------|		G|---------------------------|
D|---------------------------|}		D|---------------------------|}
A|0-0-0-2-4-5-5-5-4-2-4------|} x3	A|---------------------------|} x2
E|---------------------------|		E|0-0-2-0-4-0-0-5-4-0-2-4-2-0|



G|---------------------------|		G|---------------------------|
D|---------------------------|}		D|---------------------------|
A|0-0-0-2-4-5-5-5-4-2-4------|} x3	A|---------------------------|
E|---------------------------|		E|0-0-2-0-4-0-0-5-4-0-2-4-2-0|



G|---------------------------|		G|---------------------------|
D|---------------------------|}		D|---------------------------|} REPEAT AS
A|0-0-0-2-4-5-5-5-4-2-4------|} x3	A|---------------------------|} NECESSERY TO
E|---------------------------|		E|0-0-2-0-4-0-0-5-4-0-2-4-2-0|  FADE


This is the excat tab for "She Bangs The Drums". Play it slowly at first to 
get it right, then speed it up. Play along with the CD.

The last tab was terrible so here is the real deal. They only tabbed the 
introduction! Nobody wants that! They want the WHOLE SONG!!

Any comments, questions, absolutley anything at all e-mail me at 
charlatan_3@hotmail.com.

Comments