Stone Roses - Sally Cinnamon Chords & Tabs

 

Sally Cinnamon Chords & Tabs

Stone Roses Chords & Tabs

Version: 1 Type: Tab 0 ratings
1 star 2 stars 3 stars 4 stars 5 stars
comments

Sally Cinnamon Tab

   
E----------------------------------------------------------------
B---------3----1----0-----1---0-----1---0----1---0---------------
G---0-----------------------------------------------------2------
D----------------------------------------------------------------   X2
A----------------------------------------------------------------
E----------------------------------------------------------------

      /D.../

E----------------------------------------------------------------
B-------------------------1---0-----1---0----1---0---------------
G---------------------------------------------------------2------
D----------------------------------------------------------------  
A----------------------------------------------------------------
E----------------------------------------------------------------

      /G.../GD../
      
      /G.../G.../C.../C.../ X2

E----------------------------------------------------------------
B----------------------------------------------------------------
G---0-----0---2---0---4---2-----0------0---2---0---4---2---0-----
D----------------------------------------------------------------  
A----------------------------------------------------------------
E----------------------------------------------------------------

E----------------------------------------------------------------
B----------------------------------------------------------------
G---------0---2---0---4---2-----0------0---2---0---4---2---0-----
D---------------------------------------------------------------- (muted)  
A----------------------------------------------------------------
E----------------------------------------------------------------

E----------------------------------------------------------------
B----------------------------------------------------------------
G---0-----0---2---0---4---2-----0------0---2---0---4---2---0-----
D----------------------------------------------------------------  
A----------------------------------------------------------------
E----------------------------------------------------------------

E----------------------------------------------------------------
B----------------------------------------------------------------
G---------0---2---0---4---2-----0------0---0---0---0---0---0-----
D----------------------------------------------------------------  
A----------------------------------------------------------------
E----------------------------------------------------------------

       /D.../..../C.../..../

E----------------------------------------------------------------
B---------3----1----0-----1---0-----1---0----1---0---------------
G---0-----------------------------------------------------2------
D----------------------------------------------------------------   X2
A----------------------------------------------------------------
E----------------------------------------------------------------

       /G.../..../

E----------------------------------------------------------------
B----------------------------------------------------------------
G---------0---2---0---4---2-----0------0---2---0---4---2---0-----
D---------------------------------------------------------------- (muted)  
A----------------------------------------------------------------
E----------------------------------------------------------------

E----------------------------------------------------------------
B----------------------------------------------------------------
G---------0---2---0---4---2-----0------0---2---0---4---2---0-----
D----------------------------------------------------------------  
A----------------------------------------------------------------
E----------------------------------------------------------------

E----------------------------------------------------------------
B----------------------------------------------------------------
G---------0---2---0---4---2-----0------0---2---0---4---2---0-----
D---------------------------------------------------------------- (muted)  
A----------------------------------------------------------------
E----------------------------------------------------------------
[ Tab from: http://www.guitartabs.cc/tabs/s/stone_roses/sally_cinnamon_tab.html ]
E----------------------------------------------------------------
B----------------------------------------------------------------
G---------0---2---0---4---2-----0------0---2---0---4---2---0-----
D----------------------------------------------------------------  
A----------------------------------------------------------------
E----------------------------------------------------------------

E----------------------------------------------------------------
B----------------------------------------------------------------
G---------0---2---0---4---2-----0------0---2---0---4---2---0-----
D---------------------------------------------------------------- (muted)  
A----------------------------------------------------------------
E----------------------------------------------------------------

E----------------------------------------------------------------
B----------------------------------------------------------------
G---------0---2---0---4---2-----0------0---2---0---4---2---0-----
D----------------------------------------------------------------  
A----------------------------------------------------------------
E----------------------------------------------------------------

E----------------------------------------------------------------
B----------------------------------------------------------------
G---------0---2---0---4---2-----0------0---0---0---0---0---0-----
D----------------------------------------------------------------  
A----------------------------------------------------------------
E----------------------------------------------------------------

      /D.../..../C.../..../

E----------------------------------------------------------------
B---------3----1----0-----1---0-----1---0----1---0---------------
G---0-----------------------------------------------------2------
D----------------------------------------------------------------   X2
A----------------------------------------------------------------
E----------------------------------------------------------------

E------------------------------------------------------------------
B------------------------------------------13-----12---------------
G---2--/---12------12-----14----12--------------------12----12--12-
D------------------------------------------------------------------
A------------------------------------------------------------------
E------------------------------------------------------------------


E-----------------------------------------------------------------
B--13---12------------13-----12-------------13---12---------------
G---------------12---------------------12-----------------12------
D-----------------------------------------------------------------
A-----------------------------------------------------------------
E-----------------------------------------------------------------


E-----------------------------------------------------------------
B-----------------------------------------------------------------
G--12--12---12-----12----14---12----14----12---14---12--12--------
D-----------------------------------------------------------------
A-----------------------------------------------------------------
E-----------------------------------------------------------------


E-----------------------------------------------------------------
B--13---12--------------------------------15--15--15--15----------
G----------------12-------12--12--12------------------------------
D-----------------------------------------------------------------
A-----------------------------------------------------------------
E-----------------------------------------------------------------


E-----------------------------------------------------------------
B--13---12-----13-----12------------------------------------------
G---------------------------------12------------------------------
D-----------------------------------------------------------------
A-----------------------------------------------------------------
E-----------------------------------------------------------------

      /D.../..../G.../..../  X2

E--------------
B--5---4-----2-
G--------------
D--------------     /G............................./
A--------------
E--------------
Comments