Stone Roses - Made Of Stone Chords & Tabs

 

Made Of Stone Chords & Tabs

Stone Roses Chords & Tabs

Version: 1 Type: Bass Tab 1 rating
1 star 2 stars 3 stars 4 stars 5 stars
comments

Made Of Stone Bass Tab

   
Stone Roses
Made of Stone

Tabbed by Iain Irvine

Verse From End of Intro
[ Tab from: http://www.guitartabs.cc/tabs/s/stone_roses/made_of_stone_btab.html ]
Only do the bit b4 the * once
             * D			G
G|--2-0---------|---------------------------|-------------------
D|------2-0-----|---------------------------|-------------------
A|----------2-0-|-------------------5-------|-------------------
E|--------------|-7-7-5-7-7-5-7-7-5---7-5-3-|-5-5-3-5-5-3-5-5-3-

           F                           E
G|---------|---------------------------|-------------------------
D|---------|---------------------------|-------------------------
A|-3-------|-------------------1-------|-2-2-0-0----------2-0-2-0
E|---5-3-1-|-3-3-1-3-3-1-3-3-1---3-1-0-|---------2-2-0-0---------


G|---------
D|---------
A|---------
E|-2-0-2-0- 

Comments