Stone Roses - I Am The Resurrection Chords & Tabs

 

I Am The Resurrection Chords & Tabs

Stone Roses Chords & Tabs

Version: 1 Type: Tab 0 ratings
1 star 2 stars 3 stars 4 stars 5 stars
comments

I Am The Resurrection Tab

   
#----------------------------------PLEASE NOTE---------------------------------#
#This file is the author's own work and represents their interpretation of the #
#song. You may only use this file for private study, scholarship, or research. #
#------------------------------------------------------------------------------#

Title:  I Am The Resurrection
Artist:  Stone Roses


(First verse has no guitar part) 
[0:43](first verse bridge) 

[1:25](second verse bridge) 

G#min E B 

E--------------4--4----------4--------------4-----4------------------- 
B--------------4--4------4-7------------------7-----7--4-4h7p4-------- 
G--------------4--4--4h6---------------------------------------6--4--- 
D--------------6--6-------------6--------4---------------------------- 
A--------------6--6-----------------4--6------------------------------ 
E-7-6-7-9-7-6--4--4--------------------------------------------------- 
 

G#min 

E------------------------------------------------------------ 
B-----------------------------------------8-------7--9------- 
G-4--------4------------------------------7--6--8------------ 
D-4-4--4h6---6p4h6-----6-----------4--6---------------------- 
A------------------------------4--6-------------------------- 
E-------------------4-----4--6----------------------------4-- 


E F# B 

E------------------2--2--2-2-2-------------------] 
B------------------2--2--2-2-2-------------------] 
G------------------3--3--3-3-3----9-9-8-9-9-8----] 
D-6-4---4----------4--4--4-4-4----9-9-9-9-9-9-7--] 
A-----6---6--4--2--4--4--4-4-4----9-9-9-9-9-9-7--] 
E------------------2--2--2-2-2----7-7-7-7-7-7-7--] 



[1:02] (second verse) 

[1:42] (third verse) 

B A 

E------------------------------------------------------9-------- 
B-----7------7-7------7------7-7-------7--------------10-------- 
G---------9--8-8----------9--8-8------------9-8--------9------7- 
D--9----9----9-9---9----9----9-9----9-----9-----9---7-----7-9--- 
A--------------------------------------------------------------- 
E--------------------------------------------------------------- 

E B 

E---------------------------------------------------] 
B---9--9-9----------------7-----7-7----7/10-10---/7-] 
G---9--9-9--------------------9-8-8----8/11---11-/8-] 
D---9--9-9------7------9----9---9-9-----------------] 
A-----------7-9---9-7-------------------------------] 
E---------------------------------------------------] 

[1:14](second verse) 

[1:55](third verse) 

B A 

E------------------------------------------------------9-------- 
B-----7------7-7------7------7-7-------7--------------10-------- 
G---------9--8-8----------9--8-8------------9-8--------9------7- 
D--9----9----9-9---9----9----9-9----9-----9-----9---7-----7-9--- 
A--------------------------------------------------------------- 
E--------------------------------------------------------------- 

E B 

E--------------------------------] 
B--9-9---------------7-----7-7---] 
G--9-9-------------------9-8-8---] 
D--9-9-----7------9----9---9-9---] 
A------7-9---9-7-----------------] 
E--------------------------------] 

 

[2:06](third verse bridge) 

G#min E B 

E--------------4--4----------4--------------4-----4------------------- 
B--------------4--4------4-7------------------7-----7--4-4h7p4-------- 
G--------------4--4--4h6---------------------------------------6--4--- 
D--------------6--6-------------6--------4---------------------------- 
A--------------6--6-----------------4--6------------------------------ 
E-7-6-7-9-7-6--4--4--------------------------------------------------- 


G#min 

E------------------------------------------------------------ 
B-----------------------------------------8-------7--9------- 
G-4--------4------------------------------7--6--8------------ 
D-4-4--4h6---6p4h6-----6-----------4--6---------------------- 
A------------------------------4--6-------------------------- 
E-------------------4-----4--6----------------------------4-- 


E F# B 

E------------------2--2--2-2-2-2-2-2-2--] 
B------------------2--2--2-2-2-2-2-2-2--] 
G------------------3--3--3-3-3-3-3-3-3--] 
D-6-4---4----------4--4--4-4-4-4-4-4-4--] 
A-----6---6--4--2--4--4--4-4-4-4-4-4-4--] 
E------------------2--2--2-2-2-2-2-2-2--] 

[2:23] 

E B E 

E--0~~~~~~~~~~~~~~~~~~~-7~~~~~~~~~~~~~~~~~~~~-7~~~~~~~~~~~~~~~~~~~~~~~~ 
B--0~~~~~~~~~~~~~~~~~~~-7~~~~~~~~~~~~~~~~~~~~-9~~~~~~~~~~~~~~~~~~~~~~~~ 
G--1~~~~~~~~~~~~~~~~~~~-8~~~~~~~~~~~~~~~~~~~~-9~~~~~~~~~~~~~~~~~~~~~~~~ 
D--2~~~~~~~~~~~~~~~~~~~-9~~~~~~~~~~~~~~~~~~~~-9~~~~~~~~~~~~~~~~~~~~~~~~ 
A--2~~~~~~~~~~~~~~~~~~~-9~~~~~~~~~~~~~~~~~~~~-7~~~~~~~~~~~~~~~~~~~~~~~~ 
E--0~~~~~~~~~~~~~~~~~~~-7~~~~~~~~~~~~~~~~~~~~-7~~~~~~~~~~~~~~~~~~~~~~~~ 
 

G#min[2:36] E B 

E~~~-7~~~~~~~~~~~~~~~~~~--------------------------------------------------- 
B~~~-7~~~~~~~~~~~~~~~~~~--11-9-12-9-11-9----9-------12-11-9-11-9----------- 
G~~~-8~~~~~~~~~~~~~~~~~~-----------------11---11/----------------11-8-11/4- 
D----9~~~~~~~~~~~~~~~~~~--------------------------------------------------- 
A~~~-9~~~~~~~~~~~~~~~~~~--------------------------------------------------- 
E~~~-7~~~~~~~~~~~~~~~~~~--------------------------------------------------- 



G#min E B 

E--------------------11-9--11------------------------------------------- 
B-12--12-14-12-11--------12--12-9---9--9--9-12-9------------------------ 
G-11--11---------14--------------11-----11-------11-8------8-8h9p8------ 
D-----------------------------------------------------9-11---------11-9- 
A----------------------------------------------------------------------- 
E----------------------------------------------------------------------- 

G#min E 

E-------16p14h16p14h16p14-------------------------------------------------- 
B-12-12------------------16p14h16p14--------------------------------------- 
G-11-11-----------------------------16-13---13--15-15--16-16--18-18--20-20- 
D-------------------------------------------------------------------------- 
A-------------------------------------------------------------------------- 
E-------------------------------------------------------------------------- 

F# 

E-----------------------------------------------------------------7- 
B-----------------------------------------------------------------9- 
G-18-18--16-16--15-15--13-13--11-11--9-9--8-8-6--8h9p8-6-8h9p8-6--9- 
D-----------------------------------------------------------------9- 
A-----------------------------------------------------------------7- 
E-----------------------------------------------------------------7- 

[3:00] 

E B E 

E--0~~~~~~~~~~~~~~~~~~~-7~~~~~~~~~~~~~~~~~~~~-7~~~~~~~~~~~~~~~~~~~~~~~~ 
B--0~~~~~~~~~~~~~~~~~~~-7~~~~~~~~~~~~~~~~~~~~-9~~~~~~~~~~~~~~~~~~~~~~~~ 
G--1~~~~~~~~~~~~~~~~~~~-8~~~~~~~~~~~~~~~~~~~~-9~~~~~~~~~~~~~~~~~~~~~~~~ 
D--2~~~~~~~~~~~~~~~~~~~-9~~~~~~~~~~~~~~~~~~~~-9~~~~~~~~~~~~~~~~~~~~~~~~ 
A--2~~~~~~~~~~~~~~~~~~~-9~~~~~~~~~~~~~~~~~~~~-7~~~~~~~~~~~~~~~~~~~~~~~~ 
E--0~~~~~~~~~~~~~~~~~~~-7~~~~~~~~~~~~~~~~~~~~-7~~~~~~~~~~~~~~~~~~~~~~~~ 


B G#min E B 

E~~~-7~~~~~~~~~~~----------------------------4---4------------------ 
B~~~-7~~~~~~~~~~~-------------------4h7p4--7--------7--4h7-4-------- 
G~~~-8~~~~~~~~~~~--------------4-6----------------------------6-4-4- 
D~~~-9~~~~~~~~~~~-----4--6--4h6------------------------------------- 
A~~~-9~~~~~~~~~~~-4h6----------------------------------------------- 
E~~~-7~~~~~~~~~~~--------------------------------------------------- 


G#min E B 

E---7----------4--4----------4--------------4-----4------------------- 
B---7----------4--4------4-7------------------7-----7--4-4h7p4-------- 
G---8----------4--4--4h6---------------------------------------6--4--- 
D---9----------6--6-------------6--------4---------------------------- 
A---9----------6--6-----------------4--6------------------------------ 
E---7----------4--4--------------------------------------------------- 


G#min 
[ Tab from: http://www.guitartabs.cc/tabs/s/stone_roses/i_am_the_resurrection_tab.html ]
E------------------------------------------------------------ 
B-----------------------------------------8-------7--9------- 
G-4--------4------------------------------7--6--8------------ 
D-4-4--4h6---6p4h6-----6-----------4--6---------------------- 
A------------------------------4--6-------------------------- 
E-------------------4-----4--6----------------------------4-- 

E F# B 

E------------------2--2--2-2-2-2-2-2-2--] 
B------------------2--2--2-2-2-2-2-2-2--] 
G------------------3--3--3-3-3-3-3-3-3--] 
D-6-4---4----------4--4--4-4-4-4-4-4-4--] 
A-----6---6--4--2--4--4--4-4-4-4-4-4-4--] 
E------------------2--2--2-2-2-2-2-2-2--] 

[3:28] 

B B Bsus4 B 

E---7--7-7--7-7--7-7--7----7--7--7---7-7--7-7--7----7---7-7-7-7--7-7--7-] 
B---7--7-7--7-7--7-7--7----7--10-10--7-7--7-7--7----7---7-7-7-7--7-7--7-] 
G---8--8-8--8-8--8-8--8----8--8--8---8-8--8-8--8----8---8-8-8-8--8-8--8-] 
D---9--9-9--9-9--9-9--9----9--9--9---9-9--9-9--9----9---9-9-9-9--9-9--9-] 
A-----------9-9--9-9--9--------------9-9--9-9--9--- --------9-9--9-9--9-] 
E-7---------7-7--7-7--7--7-----------9-9--9-9--9--7---------7-7--7-7--7-] 

[3:39]Small bass solo (R2) 

[3:48] 

E---------------------------------------------------------------------- 
B----7--------------------7--9-9-7-9-9--------------------------------- 
G------9-7h9p7-----7-9----7--9-9-7-9-9------7-------------------------- 
D-9------------7h9-----9--7--9-9-7-9-9--7h9---9-7h9p7------------------ 
A-----------------------------------------------------9p7h9--9p7h9p7-5- 
E---------------------------------------------------------------------- 

E---------14--12-12-----------------12------------------------------ 
B-------------------15-15--15-12h15----15-12------------------------ 
G------------------------------------------------------------------- 
D------------------------------------------------------------------- 
A-7-5------------------------------------------5h7p5-7h9p7-5-7-5---- 
E-----7--------------------------------------7-------------------7-- 

E-12h14p12----12-14---19-17----------------12/0--] 
B----------15---------------19--17-17/12---12/0--] 
G------------------------------------------------] 
D------------------------------------------------] 
A------------------------------------------------] 
E------------------------------------------------] 

[4:05] 

E-10--7-7---9--9--------------7-7-7-7------------------7----------- 
B-10--7-7--10-10-------7------7-7-7-7---7-7-7-7------7-7-----10-10- 
G----------------7-7h9---7--------------7-7h9p7---7h8----7----9--9- 
D--------------------------9--------------------9------------------ 
A------------------------------------------------------------------ 
E------------------------------------------------------------------ 

E-------------7--7-7-7-7-7-7--7-7---------7------------------------ 
B--9-9-9--7---7--7-7-7-7-7-7--7-7-------9--9p7----7-7-7-7-7-7-7---- 
G--9-9-9--7-----------------------7-7h9--------9--7^8-7^8-7^8^7---- 
D----------------------------------------------------------------9- 
A------------------------------------------------------------------ 
E------------------------------------------------------------------ 

E----------------------------------------------------------------- 
B--7--7-7-7-7-6-6--7-7--9-9--10-10--9-9--7-7---10---9----7-------- 
G--7--7-7-7-7-7-7--7-7--7-7---7--7--7-7--7-7-------------------9-- 
D--------------------------------------------9----9----9----9----- 
A----------------------------------------------------------------- 
E----------------------------------------------------------------- 

B 

E--------------------------------7--] 
B--------------------------------7--] 
G-----7^8----9-9--9--9--------9--8--] 
D-7h9-----9--9-9--9--9--7-7h9----9--] 
A--------------------------------9--] 
E--------------------------------7--] 

[4:25]It now goes like this for a few second 

B B B B E B B E B E B B 

E--7--7--7--7--------7--7-------7-------7--12/0--7-- 
B--7--7--7--7--9^10--7--7--9^10-7--9^10-7--12/0--7-- 
G--8--8--8--8--9^10--8--8--9^10-8--9^10-8--------8-- 
D--9--9--9--9--9^10--9--9--9^10-9--9^10-9--------9-- 
A--9--9--9--9--------9--9-------9-------9--------9-- 
E--7--7--7--7--------7--7-------7-------7--------9-- 

[4:48] 

B B B 

E------------------------------------------------------------------ 
B-------------------------------------------7-----7-7-------------- 
G--------------7------------7h9p7-----------7-----7-7----9-8h9p8--- 
D--9~~~~-9-7h9----9~~~~-9-9-------9--9~~~~--7--9--7-7-9--9-9-----9- 
A--9~~~~-9--------9~~~~-9-9----------9~~~~-----9------9--7-7-----9- 
E--7~~~~----------7~~~~--------------7~~~~-----7------7----------7- 

A E B 

E--5--5-5-------------------------------------------7--------------------- 
B--5--5-5-7^8~~--------9-9-9---------7--------------7--------------------- 
G--6--6-6-7^8~~--1--1--9-9-9---------7-----8h9p8---------8h9--8h9p8h9p8--- 
D--7--7-7-7^8~~--2--2--9-9-9---9-9-9-7-9-9-9-----9----9--9----9---------9- 
A--7--7-7--------2--2--7-7-7---9-9-9---9-9-7-----9----9--7----7---------9- 
E--5--5-5--------0--0----------7-7-7---7-7-------7----7-----------------7- 

A E B A B 

E--5--5-5------------------------------------------------------------------ 
B--5--5-5-7^8~~--------9-9-9-------------------7-7---------------14--16-16- 
G--6--6-6-7^8~~--1--1--9-9-9-------------------7-7---------------14--16-16- 
D--7--7-7-7^8~~--2--2--9-9-9--9--9-9-9-9-9--9--7-7-7h9-9-9-9-9-9-14--16-16- 
A--7--7-7--------2--2--7-7-7--9--9-9-9-9-9--9------7h9-9-9-9-9-9-12--14-14- 
E--5--7-7--------0--0---------7--7-7-7-7-7--7--------7-7-7-7-7-7----------- 

B 

E--------------------------------------------------------------------- 
B--------------------------------------------------------------------- 
G--------------------------------------------------------------------- 
D-9-9-9-9-9-9-9-9-9-9-9-9-9-9-9-9-9-9-9-9-9-9-9-9-9-9-9-9-9-9-9-9-9-9- 
A-9-9-9-9-9-9-9-9-9-9-9-9-9-9-9-9-9-9-9-9-9-9-9-9-9-9-9-9-9-9-9-9-9-9- 
E-0h7-7-7-7-7-7-7-7-7-7-0h7-7-7-7-7-7-7-7-7-7-0h7-7-7-7-7-7-7-7-7-7-7- 

E--------------------------------- 
B--------------------------------- 
G--------------------------------- 
D-9-9-9-9-9-9-9-9-9-9---9-9--9--9- 
A-9-9-9-9-9-9-9-9-9-9---9-9--9--9- 
E-0h7-7-7-7-7-7-7-7-7---7-7--0--7- 

[5:22] 

E---------------------------------------------------- 
B---------------------------------------------------- 
G-----7------7----9^--7h9p7--------------8~~~~~~~~~~- 
D-7h9----7h9----7-9^-------9-7h9p7-------9~~~~~~~~~~- 
A----------------------------------9-7-5-9~~~~~~~~~~- 
E----------------------------------------7~~~~~~~~~~- 

[solo] 

E--------------------------------------------------------------------- 
B-7--7---------------7-------10-7-------------------------------7---7- 
G------9-7h9p7---7-9---9-7h9------7h9-9-7---7-------7-9-7---7h9---9--- 
D--------------9--------------------------9---9-7-9-------9----------- 
A--------------------------------------------------------------------- 
E--------------------------------------------------------------------- 

E---------------------------------------------7------------- 
B-10-10-10--10-10-10--7--7-7------------------7------------- 
G-----------------------------7h9p7h9p7h9p7---7-----7-9-7--- 
D-------------------------------------------9---7h9-------9- 
A----------------------------------------------------------- 
E----------------------------------------------------------- 

E----------------------------------- 
B-7--------------7----------------4- 
G---9p7---7--------9p7---7-9^-----4- 
D-------9---9--9-------9---9^-----4- 
A----------------------------------- 
E----------------------------------- 

[ending] This is repeated + chords B,A,E 

E--------------- 
B---7----------- 
G-------9p8----- 
D-9---9-----9-9- 
A--------------- 
E--------------- 

This tab was submitted by Alex Sharrocks
Please get in touch  - VietnamZombie@hotmail.com

This Tab is all correct
If you want anymore Stone Roses tabs you may aswell
go to the official Stone Roses Site:
www.stoneroses.net 
Just click on Roses Tabs and bobs your uncle.
Comments