Stone Roses - How Do You Sleep Acoustic Chords & Tabs

 

How Do You Sleep Acoustic Chords & Tabs

Stone Roses Chords & Tabs

Version: 1 Type: Tab 0 ratings
1 star 2 stars 3 stars 4 stars 5 stars
comments

How Do You Sleep Acoustic Tab

   
#----------------------------------PLEASE NOTE---------------------------------#
#This file is the author's own work and represents their interpretation of the #
#song. You may only use this file for private study, scholarship, or research. #
#------------------------------------------------------------------------------#

Stone Roses -- How do you sleep

Words & Music : John Squire

This is my acoustic version......

Chords used:

E    D    A  Dsus2  Asus2     B     F#m7alt      Emaj7/D#  Badd4     Aadd9     Emaj7   Amaj7  C#m

Verse 1 uses open chords as above

Link 1

e-0---0-x-2-0-----0|0-----------------|x----x----5-|
b-0---0-x-3---0h2--|7b8---------b7-5--|9----7----5-|
g-1---1-x-2--------|6---6-6-6-------6-|9----7----6-|
d-2---2-x-0--------|7---7-7-7---------|9----7----7-|
a-2---2-x-x--------|7---7-7-7---------|7----5----7-|
e-0---0-x-x--------|0-----------------|0----x----5-|


Verse 2 variation....

e-x-x-x-x-x-x--x-x--------|x------x-x-x-x-x-------------|x-x-x-x-x-x-x-x-x-x-x-0-------
b-9-9-x-x-x-9-7-7---------|10--10-x-x-x-9h10-9---9------|9-9-x-x-x-9-7-7-x-x-x-0------
g-9-9-x-x-x-9-7-7---------|9----9-x-x-x-9-----11---11-9-|9-9-x-x-x-9-7-7-x-x-x-6------
d-9-9-x-x-x-9-7-7-------7-|11--11-x-x-x-11--------------|9-9-x-x-x-9-7-7-x-x-x-7-------
a-7-7-x-x-x-7-5-5--7h9----|0----0-x-x-x-0---------------|7-7-x-x-x-7-5-5-x-x-x-7------
e-x-x-x-x-x-x--x-x--------|0----0-x-x-x-x---------------|x-x-x-x-x-x-x-x-x-x-x-0------


e-x-x-x-x-x-x-x-x---------|x------x-x-x-x-x-------------|x-x-x-x-x-x-x-x-x-x-x-5-------
b-9-9-x-x-x-9-7-7---------|10--10-x-x-x-9h10-9---9------|9-9-x-x-x-9-7-7-x-x-x-5------
g-9-9-x-x-x-9-7-7---------|9----9-x-x-x-9-----11---11-9-|9-9-x-x-x-9-7-7-x-x-x-6------
d-9-9-x-x-x-9-7-7-------7-|11--11-x-x-x-11--------------|9-9-x-x-x-9-7-7-x-x-x-7-------
a-7-7-x-x-x-7-5-5--7h9----|0----0-x-x-x-0---------------|7-7-x-x-x-7-5-5-x-x-x-7------
e-x-x-x-x-x-x-x-x---------|0----0-x-x-x-x---------------|x-x-x-x-x-x-x-x-x-x-x-5------

Chorus

use open chords above exceptE = barred and- (B) and Aadd9...use these fills

[ Tab from: http://www.guitartabs.cc/tabs/s/stone_roses/how_do_you_sleep_acoustic_tab.html ]
Fill 1Fill 2
       How do you |Sleep....         .. and |keep the dogs....
e-----------------|(E)Barred..       -0|x-x--x--x|0.....
b-----------------|                  .. -0|9h10-10p9|0....
g-----------------|                  .. -8|9-9--9--9|8....
d-----2-4p2-----2-|                  .. -9|9h11-11p9|9...
a-2h4--------4----|                  . -9|0-0--0--0|9...
e-----------------|                        -7|x-x--x--x|7....

link 2 - 
fill 3 

e--4h5p4----|-7-----7--9--5-|
b--------5--|-9-----7-----5-|
g-x---------|-9-----7-----6-|
d-----------|-9-----7-----7-|
a-----------|-7-----7-----7-|
e-----------|-7-----5-----5-|

Intro ||:E    |D    |A    |A (Aadd4)   :||

Chorus 2 - As chorus 1

Guitar solo.|E    |B    |Asus2     |E      |F#m7alt    |Emaj7/D#    |Aadd9    |Aadd9    |Badd4    |Badd4    ||

Chorus 3 - As Chorus 1

outro  |D       |C#m              |B            |E      ||
         at your Door


Comments and requests to gyr84me@yahoo.com


*****************************************************************************************************************


Stone Roses -- Bye Bye Bad man (acoustic)
-----------------------------------------

Words & Music Ian Brown & John Squire

note

    Gm6/Bb     C*
e-   0         3
b-   3         1
g-   0         0
d-   0         2
a-   1         3
e-   x         0



intro - (Palm mute) |D    |D    |D    |D    ||
----------------------------------------------

Verse 1
Chorus 1
Chorus 2 - As Chorus 1
Bridge 1


solo |C*    |G      |Bm       |C     D     ||
---------------------------------------------

Bridge2 - As bridge 1

outro solo ||: C*    |G     |Bm       |C      D    : || (repeat to fade)
-------------------------------------------------------

Fill 1

e---8---7--------------10-----|
b-----------10---8p7-8-----8p7|
g-7---7---7----7-----7-----7--|
d-0---0---0----0-----0-----0--|
a-----------------------------|
e-----------------------------|

Fill 2

e-3-3-2-3-2----5-5-2-3-2---|2-2-2-2-2-2-2-3-5/2-2-2-2-2-2-2|
b-3-3---3---3--3-3---3---3-|3-3-3-3-3-3-----3-3-3-3-3-3-3-3|
g-0-0---0------3-3---3-----|2-2-2-2-2-2-----2-2-2-2-2-2-2-2|
d-0-0---0------0-0---0-----|0-0-0-0-0-0-----0-0-0-0-0-0-0-0|
a-2-x---x------x-x---x-----|x-x-x-x-x-x-----x-x-x-x-x-x-x-x|
e-3-3---3------x-x---x-----|x-x-x-x-x-x-----x-x-x-x-x-x-x-x|

You can kind of do some of the solos on one guitar, but I haven't tabbed it out.... do your own thing,
or give me a shout...

Tabbed by Mike

comments, request to gyr84me:yahoo.com
Comments