Stone Roses - Fools Gold Chords & Tabs

 

Fools Gold Chords & Tabs

Stone Roses Chords & Tabs

Version: 4 Type: Tab

Fools Gold Tab

The Stone Roses - Fool's Gold



Riff 1

e|--------------------------------------------------------------------|
B|--------------------------------------------------------------------|
G|--------------------------------------------------------------------|
D|------7-------5p4h5p4h5---------------------------------------------|
A|------------------------------3p2h3p2h3---3-----2---2---------------|
E|--5---------------------------------------------------3---4---5-----|



Riff 2
[ Tab from: http://www.guitartabs.cc/tabs/s/stone_roses/fools_gold_tab_ver_4.html ]
e|--------------------------------------------------------------------|
B|--------------------------------------------------------------------|
G|--------------------------------------------------------------------|
D|-----------5---------------5----------------------------------------|
A|------------7-5-------------7-5-3-------------3-5------------353----|
E|--5---5--5------8-8---8--8--------3---3--3-35-----5---5--5-35---5---| x2

e|--------------------------------------------------------------------|
B|--------------------------------------------------------------------|
G|--------------------------------------------------------------------|
D|-----------5---------------5----------------------------------------|
A|------------7-5-------------7-5-3-5---5--5----3-5-------------------|
E|--5---5--5------8-8---8--8-----------------35-----5-----------------| x1



Riff 3

e|------------------------------------|
B|------------------------------------|
G|------------------------------------|
D|------------------------------------|
A|----------3-----2-------------------|
E|--5-----------------3-3---3---4-----|



Tabbed by NintEndO