Stone Roses - Fools Gold Chords & Tabs

 

Fools Gold Chords & Tabs

Stone Roses Chords & Tabs

Version: 2 Type: Bass Tab 0 ratings
1 star 2 stars 3 stars 4 stars 5 stars
comments

Fools Gold Bass Tab

   
THE STONE ROSES
Fools Gold (Squire/Brown)

 Riff A

G|-------------|---|
D|-------------|---|
A|-------------|---|
E|--3-4-5--5-5-|-5-|

 Riff B

G|----------------|----------------|------------------|
D|--------5-2-----|--------5-2-----|------------------|
A|-0-0-0-5----5-3-|-3-3-3-5----5-3-|--------------3-5-|
E|----------------|----------------|-3-3-3-3--3-5-----|
[ Tab from: http://www.guitartabs.cc/tabs/s/stone_roses/fools_gold_btab_ver_2.html ]
G|-----------------------|---------------|
D|-----------------------|-------5-2-----|
A|---------------3h5-3---|-----------5-3-|
E|-5--5-5-5--3h5-------5-|-5-5-5---------|

G|---------------|-------------------|
D|-------5-2-----|-------------------|
A|-3-3-3-----5-3-|-5-5-5------3-5----|
E|---------------|--------3-5-----5--|

 Riff C

G|--------------------|---------------------|
D|--------------------|---------------------|
A|------------3-3-5~2-|---------------3-----|
E|-5-5-5--3-5---------|-O-1-2-3-3-3-5---5-5-|
Comments