Stone Roses - Elizabeth My Dear Chords & Tabs

 

Elizabeth My Dear Chords & Tabs

Stone Roses Chords & Tabs

Version: 1 Type: Tab 0 ratings
1 star 2 stars 3 stars 4 stars 5 stars
comments

Elizabeth My Dear Tab

   
Artist: The Stone Roses
Song: Elizabeth My Dear
Written By: Squire, Brown

Tabbed By: Andrew Harrison

Capo on 2nd fret, all chords relative to capo.


  Am              Am              Am              Am
E--------0------|--------0------|--------0------|--------0-------|-
B------1------1-|------1------1-|------1------1-|------1-------1-|-
G-2-------------|-2-------------|-2-------------|-2--------------|-
D----2----------|----2----------|----2----------|----2-----------|-
A-0-------------|-0-------------|-0-------------|-0--------------|-
E----------0----|----------0----|----------0----|-----------0----|-
  Intro                             Tear   me    apart      and
[ Tab from: http://www.guitartabs.cc/tabs/s/stone_roses/elizabeth_my_dear_tab.html ]
  G             Am                   C              Am
E-------------|--------0-------|------------------|--------0------|-
B-0-----0-----|------1-------1-|-0---1-----1--0---|------1--------|-
G---0-----0-0-|-2--------------|---0---0--------0-|-2-----------2-|-
D-----0-----0-|----2-----------|---------2--------|----2------2---|-
A-------------|-0--------------|-2---3--------2---|-0-------------|-
E-3-----------|-----------0----|------------------|---------------|-
  boil   my     bones                  I'll  not    rest   until

  D             Am             F              A
E-2-----2-----|--------0-----|-1-----1------|-0-----0------|-
B---3-----3---|------1---0---|---1-----1--1-|---1-----1--1-|-
G-----2-----0-|-2----------1-|-----2--------|-----0--------|-
D-0-----------|----2---------|-3----------3-|-2----------2-|-
A-------------|-0------------|--------------|--------------|-
E-------------|--------------|--------------|--------------|-
she's lost her  throne    my   aim   is       true      my

  G                         Am                           G         Am
E-------------------------|--------0-----|--------0-----|------------0---
B-3---1---0----1--0-----0-|------1-------|------1-------|-0--1--0----1---
G---0---0---0--------0----|-2----------2-|-2----------2-|---------0--2---
D-0-----------------------|----2---------|----2---------|------------2---
A-----3---2----3--2-----2-|-0------------|-0----------0-|-2--3--2----0---
E--------------------3----|----------0---|----------0---|---------3--0---
  message is   clear   its  curtains for   you        Elizabeth my dear


Repeat without the words until fade ending
Comments