Stone Roses - Elephant Stone Chords & Tabs

 

Elephant Stone Chords & Tabs

Stone Roses Chords & Tabs

Version: 1 Type: Tab 1 rating
1 star 2 stars 3 stars 4 stars 5 stars
comments

Elephant Stone Tab

capo on first fret.
------ ----- ------ ---------3- -3----------- ---------
-13--- -REP- -13s7- -----0-1--- ---0-1-0----- -----0-1-
---12- ----- ------ -0-2------- ---------2-0- -0-2-----
------ -(1)- ------ ----------- ------------- ---------
------ -x7-- ------ ----------- ------------- ---------
------ ----- ------ ----------- ------------- ---------
  (1)
[ Tab from: http://www.guitartabs.cc/tabs/s/stone_roses/elephant_stone_tab.html ]
---------0-----2-----0-----0----- ---3-----0-------
---3-------3-----3-----3-----3--- -----3-----3-----
-----2-------2-----2-----2-----2- -0-----0-----0---
-0-----0------------------------- -----------------
--------------------------------- ---------------3-
--------------------------------- -----------------
	    (2)				(3)

-0---------------3-----0-------0-------------
---3---------------3-----3-------3-----------
-----0---------0-----0-----0-------0---------
-------------0-----------------------0-------
-------0-2-3-----------------3---------3-2-0-
---------------------------------------------
		(3)

--------------------------------- ----- ----- ----- -----
-----3-------3-------3-------3--- -REP- -REP- -REP- -REP-
---0---0---0---0---0---0---0---0- ----- ----- ----- -----
--------------------------------- -(2)- -(3)- -(2)- -(3)-
---------0-------2-------3------- ----- ----- ----- -----
-3------------------------------- ----- ----- ----- -----
		(3)
Comments