Stone Roses - Dont Stop Chords & Tabs

 

Dont Stop Chords & Tabs

Stone Roses Chords & Tabs

Version: 1 Type: Tab 0 ratings
1 star 2 stars 3 stars 4 stars 5 stars
comments

Dont Stop Tab

Stone Roses - Don't Stop

(tune down 1/2 step)

Solo:

eb --1-3-1-3-1-3-1-3---------------------------------------------------------------------
Bb ------------------------------------------------------------0-1-0--------------0-1-0--
Gb ----------------------0-0-0-0-0-0-0-----0-0-0-0-0-0-----0-2-------2-0-0-----0-2-------
Db ------------------3-2---------------3-2-------------3-2-----------------3-2-----------
Ab --------------------------------------------------------------------------------------
Eb --------------------------------------------------------------------------------------

eb ----------------------------------------3-3---3-5--5------5--5--
Bb ----------------------------------------1-3-3------8----8----8--
Gb --2-0-0-----0-2-0-0-----0-2-0-0-----0-2------------7--7------7--
Db --------3-2---------3-2---------3-2-----------------------------
Ab ----------------------------------------------------------------
Eb ----------------------------------------------------------------

Break:
[ Tab from: http://www.guitartabs.cc/tabs/s/stone_roses/dont_stop_tab.html ]
eb --10--8---5--7--8---5--
Bb --10--8---5--7--8---5--
Gb --11--9---5--8--9---5--
Db --12--10--7--9--10--7--
Ab --12--10--7--9--10--7--
Eb --10--8---5--7--8---5--

"Don't stop...":

eb ------5--5----3-----3----5----3-----3----
Bb ----8----8--0---0-1---1--8--0---0-1---1--
Gb --7------7---------------7---------------
Db -----------------------------------------
Ab -----------------------------------------
Eb -----------------------------------------

"Under the ship so get me over...":


eb ------5--5----3-----3----5----3-----3----
Bb ----8----8--0---0-1---1--8--0---0-1---1--
Gb --7------7---------------7---------------
Db -----------------------------------------
Ab -----------------------------------------
Eb -----------------------------------------

Main Verse riff/Outro:

eb --------------3------
Bb --1-0-1-1---3-----3--
Gb ----------------0----
Db ---------------------
Ab ---------------------
Eb ---------------------


This Tab Was Submitted By The
Maestro Alex Sharrocks Please
E-mail Me: VietnamZombie@hotmail.com
Comments