Stone Roses - Breaking Into Heaven Chords & Tabs

 

Breaking Into Heaven Chords & Tabs

Stone Roses Chords & Tabs

Version: 2 Type: Tab 0 ratings
1 star 2 stars 3 stars 4 stars 5 stars
comments

Breaking Into Heaven Tab

   
#----------------------------------PLEASE NOTE---------------------------------#
#This file is the author's own work and represents their interpretation of the #
#song. You may only use this file for private study, scholarship, or research. #
#------------------------------------------------------------------------------#

Stone Roses -- Breaking Into Heaven 

Acoustic version......Here's the main parts ...you can play about with rythyms and strumming patterns according to whats comfortable to you....play along with the song, you'll get into it.  h - hammer on, p - pull off, s - slide up (or down)

Main riff

e-0-------3--------5-5x-5--0h3p0----------|0-------3-------5-5-5-5-5-5--x-x-x
b-0-------3--------5-5x-5---------3p0-----|0-------3-------5-8-8-8-7-5--x-x-x
g-9-------4--------6-6x-6--------------2p0|9-------4-------6-6-6-6-6-6--6-7-8
d-9-------5--------7-7x-7-----------------|9-------5-------7-5-5-5-5-5--x-x-x
a-7--5h7--5----5h7-7-7x-7-----------------|7--5h7-5----5h7-7-7-7-7-7-7--4-5-6
e-0--0----3p0------5-5x-5-----------------|0--0----3p0-----5-5-5-5-5-5--0-0-0

pre chorus

e-0--0---0--0|-----------5|-0--0---0--0|-----------5|
b-0--0---0--0|-----------5|-0--0---0--0|-----------5|
g-9--9---7--7|-----------6|-9--9---7--7|-----------6|
d-9--9---7--7|7p5--------7|-9--9---7--7|7p5--------7|
a-7--7---5--5|-----7-7-5h7|-7--7---5--5|-----7-7-5h7|
e-0--0---0--0|-----------5|-0--0---0--0|-----------5|

link 1 - (first 4 bars---
[ Tab from: http://www.guitartabs.cc/tabs/s/stone_roses/breaking_into_heaven_tab_ver_2.html ]
e-0-0-0--0-0-0|5---5-5-5-5-5---|0--0--0--0-0-0|10-7---------------------------------------|
b-0-0-0--0-0-0|5---5-5-5-5-5---|0--0--0--0-0-0|-----10-7-7h8p7-8-7--8s10-8-7-7h8p7--------|
g-7s9-9--9s7-7|5h6-6-6-6-6-6---|9--9--12s9-9-9|-------------------------------------9-7-9-|
d-7s9-9--9s7-7|5h7-7-7-7-7-7---|9--9--12s9-9-9|-------------------------------------------|
a-5s7-7--7s5-5|5h7-7-7-7-7-7---|7--7--10s7-7-7|-------------------------------------------|
e-0-0-0--0-0-0|5---5-5-5-5-5---|0--0--0--0-0-0|-------------------------------------------|

Alt riff (for second 4 bars of link1 and -  Verse 2)

e-0-0-0--3-3-3-3--s5-5-5-5-5-5-x-x-x-:||
b-0-0-0--3-3-3-3--s5-5-5-5-5-5-x-x-x-:||
g-9-9-9--4-4-4-4--s6-6-6-6-6-6-x-x-x-:||
d-9-9-9--5-5-5-5--s7-7-7-7-7-7-x-x-x-:||
a-7-7-7--5-5-5-5--s7-7-7-7-7-7-4-5-6-:||
e-0-0-0--3-3-3-3--s5-5-5-5-5-5-0-0-0-:||

Chorus
e-0-----3---5-  -0-0-0-|5s3s5-0:||
b-0-----3---5-  -0-0-0-|5s3s5-5:||
g-0-----4---6-  -7s6s5-|6s4s6-6:||
d-2-----5---7-  -9s8s7-|7s5s7-7:||
a-2-----5---7-  -9s8s7-|7s5s7-7:||
e-0-----3---5-  -0-0-0-|5s3s5-0:||

intro . main riff x2

pre-chorus 1

Link 1 (play link 1 --> alt riff)

Verse 2 

(play alt riff x2)

(main riff)

pre chorus 2 - As Pre-Chorus 1

Chorus 1
Em G A                            E5->D|A-G-A
I,____I'm gonna break right into heaven|
I,_______Can't wait anymore

Link 2 (play main riff

Pre-chorus 3 - As pre-Chorus 1

Chorus 2 - As Chorus 1

Instrumental = |C    |G    |D    |Em     |C    |G    |D    ||-main riff

bridge 
[C]How many times will [G] I have to tell you
[D]You don't have to wait to die  [Em]---fill 

(fill)
e-x
b-x
G-x
d- ----0-0h2p0
a-  0h2--------2p0
e-x

You can have it all [G] anytime you want it
[D]Yeah the kingdoms all [Em]inside|Em   |Em    |Em     |Em     ||

Outro ||:E5  G |A       |E5  G |A     :||


If you need anything explained, 
gyr84me@yahoo.com

Breaking into Heaven - Words and Music John Squire....Tabbed by Mike from Glasgow
Comments