Stone Love - Pepper Chords & Tabs

 

Pepper Chords & Tabs

Stone Love Chords & Tabs

Version: 1 Type: Tab 0 ratings
1 star 2 stars 3 stars 4 stars 5 stars
comments

Pepper Tab

   
Here is this song because no body else can get it right.
This is the best song and the best band.


[ Tab from: http://www.guitartabs.cc/tabs/s/stone_love/pepper_tab.html ]
e---------------------------------------------------------------------
b---------------------------------------------------------------------
g---------------------------------------------------------------------
d---------------------------------------------------------------------
a----4----4--6-6\7/4-------------2---2------repeat------------------------------------
e------4--------------0--2--4-4----4----------------------------------
This is the basic line. 
Then guitar plays-

e---4-4-4-4---4-4-4-4---------------------------------------------------------
b---5-5-5-5---4-4-4-4---------------------------------------------------------
g---6-6-6-6---5-5-5-5---------------------------------------------------------
d---6-6-6-6---6-6-6-6---------------------------------------------------------
a---4-4-4-4---6-6-6-6---------------------------------------------------------
e-------------4-4-4-4--------------------------------------------------
   c#m         G#
Comments