Stitches - Nowhere Chords & Tabs

 

Nowhere Chords & Tabs

Stitches Chords & Tabs

Version: 1 Type: Tab 0 ratings
1 star 2 stars 3 stars 4 stars 5 stars
comments

Nowhere Tab

Main Riff (2x for intro, then 4x when vocals come in.)
e-----------------------------------------------------------|
B-----------------------------------------------------------|
G-----------------------------------------------------------|
D-9-9-9-9-9--x--7--x--9-9-9-9-9--x-x--7-7-7-7-7-------------|
A-7-7-7-7-7--x--5--x--7-7-7-7-7--x-x--5-5-5-5-5-7-7-7-7-7-7-|
E-----------------------------------------------5-5-5-5-5-5-|

Bridge (Play 2x, first time with slide to 13, second time without.)
e----------------------------------------------------|
B----------------------------------------------------|
G----------------------------------------------------|
D-------------------------------------9--7-----------|
A-9-9-9-9--9-9-9-9--9-9-9-9--9-9-9-9--7--5--7--/13\--|
E-7-7-7-7--7-7-7-7--7-7-7-7--7-7-7-7--------5--------|
[ Tab from: http://www.guitartabs.cc/tabs/s/stitches/nowhere_tab.html ]
Comments