Sting - Shape Of My Heart Chords & Tabs

 

Shape Of My Heart Chords & Tabs

Sting Chords & Tabs

Version: 9 Type: Tab 0 ratings
1 star 2 stars 3 stars 4 stars 5 stars
comments

Shape Of My Heart Tab

   
Shape of my Heart - Sting

standard tuning
h = hammer on
p = pull off
/ = slide up
\ = slide down
~ = vibrato
0 = play open



Section I:

e|---------------------------------------|
B|-10------10---9-----9---7-----7--7---6-|
G|------6-----------6---------4------4---|
D|---------------------------------------|
A|----9-------7---7-----5---5----4-------|
E|---------------------------------------|

e|---------------------------------------|
B|-10------10---9-----9---7-----7--7---6-|
G|------7-----------6---------4------4---|
D|---------------------------------------|
A|----9-------7---7-----5---5----4-------|
E|---------------------------------------|

Repeat section I 2 times.

Section II:
e|------------------------------2------2-|
B|---7-----7---5----5--6--7-5---2------2-|
G|--4--6-4~----2h4--2--------5--4-4-2--2-|
D|---------------------6--7-----4------4-|
A|-5-------------------4--5-----2------4-|
E|-------------5----5-----------2------2-|

Repeat sections I and II 6 times followed by section III.

Section III:
[ Tab from: http://www.guitartabs.cc/tabs/s/sting/shape_of_my_heart_tab_ver_9.html ]
e|-2-2-2-2-2-2-2-0-2-2-2-2-2-2-|
B|-2-2-2-2-3-3-3-3-2-2-2-2-2-2-|
G|-2-2-2-2-2-2-2-2-4-4-4-4-4-4-|
D|-4-4-2-2-0-0-0-0-4-4-4-4-4 4-|
A|-4-4-4-4---------4-4-4-4-4-4-|
E|-2-2-2-2---------2-2-2-2-2-2-|

Section IV:

e|-------------------------------------|
B|-------------------------------------|
G|-9-----9---8-----8---6-----6---6---5-|
D|-----7---------6---------4-------4---|
A|-------------------------------------|
E|---9-----7---7-----5---5-----4-------|

Repeat section IV 2 times.

Section V:

e|--------------------------|
B|---------5----------------|
G|-----6-----6------1-----5-|
D|---4---4------------------|
A|----------------2-----6---|
E|-5-------5----0-----4-----|


e|-5-5-5-5-5--4-4--4-4--4-4--5-5-5-5-5--4-4--0-|
B|-5-5-5-5-5--4-4--5-5--5-5--5-5-5-5-5--4-4--0-|
G|-6-6-6-6-6--6-6--6-6--4-4--6-6-6-6-6--6-6--2-|
D|-5-5-5-5-5--4-4--6-6--6-6--7-7-7-7-7--6-6--2-|
A|-7-7-7-7-7--6-6--4-4--4-4--7-7-7-7-7--6-6--0-|
E|-5-5-5-5-5--6-6------------5-5-5-5-5--4-4----|


Repeat sections I and II 3 times followed by section VI.

Section VI:

e|-2-2-2-2-2-2-2-0-2-2-|
B|-2-2-2-2-3-3-3-3-2-2-|
G|-2-2-2-2-2-2-2-2-4-4-|
D|-4-4-2-2-0-0-0-0-4-4-|
A|-4-4-4-4---------4-4-|
E|-2-2-2-2---------2-2-|

Repeat section VI 2 times, then play section I and end with

e|--2-|
B|--2-|
G|--2-|
D|--4-|
A|--4-|
E|--2-| 
Comments