Sting - Shape Of My Heart Chords & Tabs

 

Shape Of My Heart Chords & Tabs

Sting Chords & Tabs

Version: 2 Type: Tab 0 ratings
1 star 2 stars 3 stars 4 stars 5 stars
comments

Shape Of My Heart Tab

   
#----------------------------------PLEASE NOTE---------------------------------#
#This file is the author's own work and represents their interpretation of the #
#song. You may only use this file for private study, scholarship, or research. #
#------------------------------------------------------------------------------#

From sd021@diana.di.fc.ul.pt (SDII-Grupo_sd021)
Subject: TAB: Sting: Shape Of My Heart

Shape of My Heart  -  Sting  from "Ten Summoner's Tales" album
                      Transcription: Luis Ferreira



  This is NOT the way Dominic Miller plays it. I've got Sting's concert in
Oslo (1994) in videocassette and it is definitely harder than this.
  Dominic Miller uses an electric-shaped acoustic guitar, which makes it
easier to play in the high frets as he does.
  The names of the chords might not be correct, too.

( If you want to play with the record, then use a capo on the 2nd fret )


Intro:
        Em                Bm                 Am                       B
      0x2003            xx0x02             002210                   223332
e--3--------3-----|--2--------2-----|--0--------0-----|--0-----0--|--------|--
B--------0-----0--|--------0-----0--|-----------------|-----------|--4-----|--
G-----------------|-----------------|--------2-----2--|-----------|-----4--|--
D--2--2-----------|--0--0-----------|-----------------|-----------|--------|--
A-----------------|-----------------|--0--0-----------|--0--0-----|--2-----|--
E-----------------|-----------------|-----------------|-----------|--------|--

       C/E                Bm                 Am                       B
      0x2013            xx0x02             002210                  223332
e--3--------3-----|--2--------2-----|--0--------0-----|--0-----0--|--------|--
B--------1-----1--|--------0-----0--|-----------------|-----------|--4-----|--
G-----------------|-----------------|--------2-----2--|-----------|-----4--|--
D--2--2-----------|--0--0-----------|-----------------|-----------|--------|--
A-----------------|-----------------|--0--0-----------|--0--0-----|--2-----|--
E-----------------|-----------------|-----------------|-----------|--------|--

           C                                B           C        B7 ?   Em
         335553                           223332      335553   021200 022000
e---------------3--------|-------------|-----------|-----------|--0--|--0--|-
B---------5--------5-----|-------0--0--|--------4--|--5--5--5--|--0--|--0--|-
G---------------------5--|-------1--0--|--------4--|--5--5--5--|--2--|--0--|-
D------5-----5-----------|-------0--0--|-----4-----|--5--5--5--|--1--|--2--|-
A---3--------------------|--2^0--------|--2--------|--3--3--3--|--2--|--2--|-
E------------------------|-------3--3--|-----------|-----------|--0--|--0--|-

[ Tab from: http://www.guitartabs.cc/tabs/s/sting/shape_of_my_heart_tab_ver_2.html ]
{ Repeat the intro for each verse }
{ You may find it nice to play  A---2~\0-- between each verse. I do :) }



Now there's a change in key, which goes something like:

        Bm               F#m                 Em                    F#
      224432            xx4222             022000                244322
e-----------------|-----------------|-----------------|--------|--------|--
B--3--------3-----|--2--------2-----|--0--------0-----|--0-----|--------|--
G-----------------|-----------------|-----------------|--------|--3-----|--
D--------4-----4--|--------4-----4--|--------2-----2--|-----2--|-----4--|--
A--2--2-----------|--0--0-----------|-----------------|--------|--------|--
E-----------------|-----------------|--0--0-----------|--0-----|--2-----|--

       G/D               F#m                 Em                    F#
      x25x3x            xx4222             022000                244322
e-----------------|-----------------|-----------------|--------|--------|--
B--3--------3-----|--2--------2-----|--0--------0-----|--0-----|--------|--
G-----------------|-----------------|-----------------|--------|--3-----|--
D--------5-----5--|--------4-----4--|--------2-----2--|-----2--|-----4--|--
A--2--2-----------|--0--0-----------|-----------------|--------|--------|--
E-----------------|-----------------|--0--0-----------|--0-----|--2-----|--

           C                       D            F#        G      F#7    Bm
         355433                  x00232       244322    355433 242322 224432
e------------------------|-------------2--|-----------|--3--3--|--2--|--2--|-
B---------------3--------|-------------3--|--------2--|--3--3--|--2--|--3--|-
G------------------4-----|----------2-----|--------3--|--4--4--|--3--|--4--|-
D---------5-----------5--|-------0--------|-----4-----|--5--5--|--2--|--4--|-
A------5-----5-----------|----------------|--4--------|--5--5--|--4--|--2--|-
E---3--------------------|--2^0-----------|-----------|--3--3--|--2--|--2--|-

Bm7  G  F#7  Em    ( And now back to the original key )


Em  Em7  C               B7?         Em
         That's not the shape of my heart
    Em7  C              B7?
         That's not the shape   The shape of my heart

Repeat the intro, and while the    e----12--|--
last Em is still ringing, play:    B---12---|--
        Enjoy!                     G--12----|--




------------------------------------------------------------------------------
|                          |  "You see a city in the desert lies             |
|       Luis Ferreira      |   The vanity of an ancient king                 |
|                          |   But the city lies on broken pieces            |
|   sd021@diana.fc.ul.pt   |   Where the wind howls and the vultures sing"   |
|                          |           Sting  -  The Soul Cages              |
------------------------------------------------------------------------------
Comments