Sting - I Hung My Head Chords & Tabs

 

I Hung My Head Chords & Tabs

Sting Chords & Tabs

Version: 1 Type: Bass Tab 0 ratings
1 star 2 stars 3 stars 4 stars 5 stars
comments

I Hung My Head Bass Tab

HEY!
This is my 1st tab...
But i Think it's exactly like the song!
so...


NOTE:  * = RING NOTE

STANDARD TUNING

INTRO-VERSE:

G|-----------------------------------------------|
D|-----------------------------------------------|       (3x times) i think!
A|----------6*----6-3-----------6*----6-5--------|
E|6*----6-3-----------3*----3-6------------------|

CHORUS:
[ Tab from: http://www.guitartabs.cc/tabs/s/sting/i_hung_my_head_btab.html ]
G|-----------------------------------------------|
D|-----------------------------------------------|
A|--------------------------------------5--------|       (1x time )
E|8*----8-6-5*----5-3-1*----5-1-6*----6----------|


G|------------------------------|
D|------------------------------|
A|6*----6-3-----------6*----6-5-|
E|----------3*----3-6-----------|    go up ^ to the CHORUS

Keep reapeting the VERSE as many times as needed and then
the CHORUS once...and then go back to the VERSE... etc


Any problems... send me an email so that i correct it!
mahmoud_saada@hotmail.com
Wish me good luck! And have a good BASS time!

Thanx
                                                  tabbed by : Mahmoud Saada
                                                  7:30pm Cairo Time 28/8/04
Comments