Sting - Fields Of Gold Chords & Tabs

 

Fields Of Gold Chords & Tabs

Sting Chords & Tabs

Version: 1 Type: Bass Tab 0 ratings
1 star 2 stars 3 stars 4 stars 5 stars
comments

Fields Of Gold Bass Tab

   
Fields Of Gold  -  Sting  from the album "Ten Summoner's Tales"
                   Transcription: Luis Ferreira



{ Synth + Percussion + Bass + Guitar }


          * 7 times **
G--------|------------|--
D--------|------------|--   Bass Intro
A--2---2-|--2-0-2---2-|--
E--------|------------|--


VERSE 1:
G------------|------------|------------|--------|--
D------------|------------|------------|--------|--
A--2-0-2---2-|--2-0-------|------------|--5---5-|--
E------------|------3---3-|--3---3---3-|--------|--

G------------|------------|---------------|--------|--
D------------|------------|---------------|--------|--
A--5-4-2---2-|--2-0-----5-|--5---2---0--0-|--2---2-|--
E------------|------3-----|---------------|--------|--


{ Pipe } { Bm G D }

G--------|--------|--------|--
D--------|--------|--------|--
A--2-----|--5---5-|--5---5-|--
E------3-|--------|--------|--


VERSE 2:
G------------|------------|------------|--------|--
D------------|------------|------------|--------|--
A--5-4-2---2-|--2-0-------|------------|--5---5-|--
E------------|------3---3-|--3---3---3-|--------|--

G------------|------------|---------------|--------|--
D------------|------------|---------------|--------|--
A--5-4-2---2-|--2-0-----5-|--5---2---0--0-|--5---5-|--
E------------|------3-----|---------------|--------|--


VERSE 3:
G------------|------------|------------|--------|--
D------------|------------|------------|--------|--
A--5-4-2---2-|--2-0-------|------------|--5---5-|--
E------------|------3---3-|--3---3---3-|--------|--
[ Tab from: http://www.guitartabs.cc/tabs/s/sting/fields_of_gold_btab.html ]
G------------|------------|---------------|--------|--
D------------|------------|---------------|--------|--
A--5-4-2---2-|--2-0-----5-|--5---2---0--0-|--2---2-|--
E------------|------3-----|---------------|--------|--


{ Pipe } { Bm G D }

G--------|--------|--------|--
D--------|--------|--------|--
A--2-----|--5---5-|--5---5-|--
E------3-|--------|--------|--


VERSE 4: Play same way as VERSE 2


G--------|--------|--------|--------|--------|--------|--
D--------|--------|--------|--------|--------|--------|--
A--------|--5---5-|--------|--5---5-|--------|--5---5-|--
E--3---3-|--------|--3---3-|--------|--3---3-|--------|--

G--------|--------|--------|--------|--------|--
D--------|--------|--------|--------|--------|--
A--2---0-|--5---5-|--2---0-|--5---5-|--5---5-|--
E--------|--------|--------|--------|--------|--


{ Guitar solo }  Play same way as VERSE 2

VERSE 5: Play same way as VERSE 2

VERSE 6: Play same way as VERSE 2


                                     *7 times*
G--------|--------|--------|--------|---------|-----|--
D--------|--------|--------|--------|---------|-----|--
A--2---0-|--5---5-|--2---0-|--5---5-|--5---5--|--5--|--
E--------|--------|--------|--------|---------|-----|--

-----------------------------------------------------------------------------
|       Luis Ferreira        |  You see a city in the desert lies           |
|                            |  The vanity of an ancient king               |
| csrc08@science.di.fc.ul.pt |  The city lies in broken pieces              |
|                            |  Where the wind howls and the vultures sing  |
|         Portugal           |      Sting  -  Mad About You  (Soul Cages)   |
-----------------------------------------------------------------------------

Comments