Sting - Consider Me Gone Chords & Tabs

 

Consider Me Gone Chords & Tabs

Sting Chords & Tabs

Version: 3 Type: Bass Tab 0 ratings
1 star 2 stars 3 stars 4 stars 5 stars
comments

Consider Me Gone Bass Tab

Artist: Sting
Song:   Consider Me Gone
Album:  The Dream Of The Blue Turtles

(Tabbed by Oli - oli@elepost.de)


This tablature is a helping sketch. It doesn’t contain the correct 
sort of bars and notes. Nevertheless, I'm sure you'll be able to 
figure out and I hope it will help you!


  MAIN RIFF:
G|--------------|
D|*------------*|
A|*--4~---4----*|
E|--------------|

  BRIDGE:
G|--------------|
D|*------------*|
a|*------------*|
E|---4~---4-----|


[ Tab from: http://www.guitartabs.cc/tabs/s/sting/consider_me_gone_btab_ver_3.html ]
  INTERLUDE:
G|------------------------------------------------------------------------|
D|--------------4-6-----------------4----------------1-2------------------|
A|--------4-6-7---------------4-6-7------------1-2-4----------------------|
E|--4-6-7-------------2-4-6-7------------0-2-4----------------------------|


  BRIDGE:   [5x]           [1x]
G|--------------|--------------|
D|*------------*|--------------|
a|*------------*|--------------|
E|---4~---4-----|--4~----------|


Comments