Sting - All This Time Live Chords & Tabs

 

All This Time Live Chords & Tabs

Sting Chords & Tabs

Version: 1 Type: Bass Tab 0 ratings
1 star 2 stars 3 stars 4 stars 5 stars
comments

All This Time Live Bass Tab

Artist: Sting
Song:   All This Time (Live in Italy)
Album:  ...All This Time (Live in Italy 2001)

(Tabbed by Oli - oli@elepost.de)


*******************************************************************
This tablature is a helping sketch. It doesn’t contain the correct 
sort of bars and notes (quarter, half...). . Nevertheless, I'm sure
you'll be able to figure out and I hope it will help you! - Oli
*******************************************************************


  VERSE 1:

    [1x]| TO BE REPEATED UNTIL REFRAIN:
G|------|--------------------------------------------------------------|
D|------|*------------5-----------------------------------------------*|
A|------|*---5-7-8--5---8-5-------------------------------------------*|
E|--3-3-|--3----------------5-3--3-3-----------------------------------|


  REFRAIN:
G|---------------------------------------------------------------------|
D|-----------------------------00-000-000-000-0------------------------|
A|---------------0-00--023-33-3----------------------------------------|
E|-0~--00-00-00-0------------------------------------------------------|


  VERSE 2:

    [1x]| TO BE REPEATED UNTIL REFRAIN:
G|------|--------------------------------------------------------------|
D|------|*------------5-----------------------------------------------*|
A|------|*---5-7-8--5---8-5-------------------------------------------*|
E|--3-3-|--3----------------5-3--3-3-----------------------------------|


  REFRAIN:
G|---------------------------------------------------------------------|
D|-----------------------------00-000-000-000-0------------------------|
A|---------------0-00--023-33-3----------------------------------------|
E|-0~--00-00-00-0------------------------------------------------------|

  (TRANSITION TO REPEAT REFRAIN)
G|---------------------------------------------------------------------|
D|---------------------------------------------------------------------|
A|---------------------------------------------------------------------|
E|-33-3-333-333-333----------------------------------------------------|
                        
G|---------------------------------------------------------------------|
D|------------------------------00-000-000-000-0-----------------------|
A|----------------0-00--023-33-3---------------------------------------|
E|-00-000-000-000------------------------------------------------------|
  If I had my way...



  VERSE 3:

    [1x]| TO BE REPEATED UNTIL REFRAIN:
G|------|--------------------------------------------------------------|
D|------|*------------5-----------------------------------------------*|
A|------|*---5-7-8--5---8-5-------------------------------------------*|
E|--3-3-|--3----------------5-3--3-3-----------------------------------|


[ Tab from: http://www.guitartabs.cc/tabs/s/sting/all_this_time_live_btab.html ]
  REFRAIN:
G|---------------------------------------------------------------------|
D|-----------------------------00-000-000-000-0------------------------|
A|---------------0-00--023-33-3----------------------------------------|
E|-0~--00-00-00-0------------------------------------------------------|

  (TRANSITION TO REPEAT REFRAIN)
G|---------------------------------------------------------------------|
D|---------------------------------------------------------------------|
A|---------------------------------------------------------------------|
E|-33-3-333-333-333----------------------------------------------------|
                        
G|---------------------------------------------------------------------|
D|------------------------------00-000-000-000-0-----------------------|
A|----------------0-00--023-33-3---------------------------------------|
E|-00-000-000-000------------------------------------------------------|
  If I had my way...


  BRIDGE TO VERSE 4:

    [1x]                          [2x]                             [1x]
G|------|-----------------------------|--------------------------------|
D|------|*------------5--------------*|------------5-------------------|
A|------|*---5-7-8--5---8-5----------*|---5-7-8--5---8-5-----55----55--|
E|--3-3-|--3----------------5-3--3-3--|-3----------------5-3----33-----|



  VERSE 4 {BASE NOTE "A"; PLAY AD LIB}; TO BE REPEATED UNTIL REFRAIN:
G|---------------------------------------------------------------------|
D|*---------7-7-7-----7-7-7--7----------------------------------------*|
A|*-0-0-0-0-------9-7----------9-7-0-0-0-0----------------------------*|
E|---------------------------------------------------------------------|
  Teachers told us....


  REFRAIN:
G|---------------------------------------------------------------------|
D|---------------------------------------------------------------------|
A|---------------2-22--245-55-577-777-777-777--------------------------|
E|-2~--22-22-22-3------------------------------------------------------|

  (TRANSITION TO REPEAT REFRAIN)
G|---------------------------------------------------------------------|
D|---------------------------------------------------------------------|
A|---------------------------------------------------------------------|
E|-55-5-555-555-555----------------------------------------------------|

G|---------------------------------------------------------------------|
D|---------------------------------------------------------------------|
A|---------------2-22--245-55-577-777-777-777--------------------------|
E|--4-22-22-22-3-------------------------------------------------------|
  If I had my way...



  OUTRO:

    [1x]                                                           [5x]
G|------|--------------------------------------------------------------|
D|------|*-------------7----------------------------------------------*|
A|------|*---7-9-10--7---10-7-----------------------------------------*|
E|--5-5-|--5------------------7-5--5-5---------------------------------|

  END:
G|---------------------------------------------------------------------|
D|--------------7------------------------------------------------------|
A|----7-9-10--7---10-7----5---4----2-----0~----------------------------|
E|--5------------------7-----------------------------------------------|




Comments