Sting - All Four Seasons Chords & Tabs

 

All Four Seasons Chords & Tabs

Sting Chords & Tabs

Version: 1 Type: Bass Tab 0 ratings
1 star 2 stars 3 stars 4 stars 5 stars
comments

All Four Seasons Bass Tab

Artist: Sting
Song:   All Four Seasons
Album:  Mercury Falling

(Tabbed by Oli - oli@elepost.de)


This tablature is a helping sketch containing the bass riffs of this song. 
It doesn’t contain neither the correct order of the song nor the sort of 
notes (quarter, half...). Nevertheless, I hope it will help you!


  BASIC RIFF - VERSE 1:
G|-----------------------|
D|*---------------------*|
A|*--------4---6--4-----*|
E|--2--4-6---------------|


  REFRAIN:           [1x]
G|-----------------------|
D|-----------------------|
A|-------2--4------------|
E|-4--0------------------|
  That's my baby...


  { VERSE 2 }

  { REFRAIN }



  INTERLUDE 1:
G|------------------------------------------------------------------------|
D|-------------------------------------22-22-22-20~-----------------------|
A|-22-22-22-22------------------------------------------------------------|
E|-------------44-44-44-44-55-55-55-55------------------------------------|
  How will I know....

G|------------------------------------------------------------------------|
D|--------------------------------------2--2------------------------------|
A|-22-22-22-22-------------44-44-44-44-------------2----------------------|
E|-------------44-44-44-44------------------------------------------------|



  { VERSE 3 }

  { REFRAIN }


  BRIDGE:            [2x]
G|-----------------------|
D|*---------------------*|
A|*--------4---6--4-----*|
E|--2--4-6---------------|

[ Tab from: http://www.guitartabs.cc/tabs/s/sting/all_four_seasons_btab.html ]
  INTERLUDE 2:                                                        [2x]
G|------------------------------------------------------------------------|
D|*-----------------------4-1--------------------------------------------*|
A|*------1-1-4-4--------------4------------------------------------------*|
E|--2-2---------2------2-------2------------------------------------------|
                    Watching the weatherman's been no good at all...
                                                                      [1x]
G|------------------------------------------------------------------------|
D|--------------1~--------------------------------------------------------|
A|------1-1-4-4-----------------------------------------------------------|
E|--2-2-------------------------------------------------------------------|
                There are no long term predictions for my baby...


  REFRAIN:          [1x]
G|----------------------|
D|----------------------|
A|-------2--4-----------|
E|-4--0-----------------|
  That's my baby...


  BRIDGE:           [1x]
G|----------------------|
D|----------------------|
A|--------4---6--4------|
E|--2--4-6--------------|


  INTERLUDE 3:
G|------------------------------------------------------------------------|
D|-------------------------------------22-22-22-20~-----------------------|
A|-22-22-22-22------------------------------------------------------------|
E|-------------44-44-44-44-55-55-55-55------------------------------------|
  How will I know....

G|------------------------------------------------------------------------|
D|--------------------------------------2--2------------------------------|
A|-22-22-22-22-------------44-44-44-44-------------2----------------------|
E|-------------44-44-44-44------------------------------------------------|


  { VERSE 4 }


  OUTRO:
          [1x]              [1x]         [1x]              [4x]  [1x]
G|------------|-----------------|------------|-----------------|-----|
D|------------|-----------------|------------|-----------------|-----|
A|-------2--4-|--------4---6--4-|-------2--4-|--------4---6--4-|-----|
E|-4--0-------|-2--4-6----------|-4--0-------|-2--4-6----------|--2~-|

Comments