Stiltskin - Footsteps Chords & Tabs

 

Footsteps Chords & Tabs

Stiltskin Chords & Tabs

Version: 1 Type: Tab 0 ratings
1 star 2 stars 3 stars 4 stars 5 stars
comments

Footsteps Tab

   
Song:Footsteps
Band:Stiltskin
Album:The Minds Eye

Standard Tuning

Hey its tom(tombuttcrunch116@hotmail.com)again, i noticed the only song that ive
ever found tabbed by Stiltskin is Inside which is a really straightforward song.
So i decided to tab the rest of them starting with their second single: Footsteps


Intro
e|--------------------
b|--------------------
g|---2---2---2---2----
d|-----3---3---3---3--
a|--------------------
E|--------------------
w/delay and volume

Intro2
     A5        F5           D5        F5
e|-------------------------------------------------
b|-------------------------------------------------
g|-------------------------------------------------
d|-------2----------10----------7----------10------
a|---0h3---3---8h10----10---5h8---8---8h10----10---
E|-------------------------------------------------

Verse

g|-------------------------------------
d|-------------------------------------
a|-------------------------------------
E|---5-5-3h5-5-5-3h5-5-5-3h5-5-5-3h5---

Gtr1
e|-------------------------------------
b|-------------------------------------
g|-------------------------------------
d|-------2---------------0-----0x------
a|-----3---------------2---------------
E|---5---------------3-----------------

Gtr1
e|-------------------------------------
b|-----------1-------------------------
g|---------2---------------------------
d|-------2---------------0-------------
a|---0h3---------------2---------------
E|-------------------3-----------------
 
Gtr2
e|-------------------------------19----
b|----------------------------------19-
g|-------------------------------------
d|-------------------------------------
a|-------------------------------------
E|-------------------------------------
You take him places I canít go

Gtr1
e|-------------------------------------
b|-------------------------------------
g|-------------------------------------
d|-------2---------------0-----0x------
a|-----3---------------2---------------
E|---5---------------3-----------------
You tell him things I donít know 


Gtr1
e|-------------------------------------
b|-----------1-------------------------
g|---------2---------------------------
d|-------2---------------0-------------
a|---0h3---------------2---------------
E|-------------------3-----------------

Gtr2
e|-------------------------------19----
b|----------------------------------20-
g|-------------------------------------
d|-------------------------------------
a|-------------------------------------
E|-------------------------------------
And even when the bonds hold fast 



Bridge
(Play Intro for one bar)
You make me hate the past

Chorus
   A5                 G5
--------0------0--------------------------
------1------1-----1--------3-----3-------
-------------------------4------4-----4---
------------------------------------------
---0------0------0------------------------
----------------------3-------3-----3-----
w/delay
Walking in your footsteps I used to walk by your side 
   D5               F5
------------------------------------------
-------6-----6---6------------------------
-----7-----7-------------10-------10------
----------------------10-------10---------
---5-----5----------8--------8------------
------------------------------------------
w/delay
How could you leave me On the very edge of suicide 

Verse2

g|--------------------------------------------------
d|--------------------------------------------------
a|--------------------------------------------------
E|---5-5-3-5-5-3-5-5-3-5-5--3-3-1-3-3-1-3-3-1-3-3---
[ Tab from: http://www.guitartabs.cc/tabs/s/stiltskin/footsteps_tab.html ]
Gtr1(repeat through verse)
e|-------------------------------------------
b|----------1-----------------1--------------
g|-------2----2---2--------2----2---2--------
d|-----2--2-----2--------2--2-----2----------
a|---0-----------------0---------------------
E|-------------------------------------------
Pm___________________________________________

e|-------------------------------------------
b|-------------------------------------------
g|------------4-----------------4------------
d|--------5-----5---5-------5-----5---5------
a|------5---5-----5-------5---5-----5--------
E|---3-----------------3---------------------
Pm___________________________________________

Gtr2
e|-----------------------------
b|-----------------------------
g|-----------------------------
d|-----------------------------
a|-----------------------------
E|-----------------------------

Gtr2
e|------------------20--------
b|----------------------------
g|----------------------------
d|----------------------------
a|----------------------------
E|----------------------------
He leaves you traces I can see 

Gtr2
e|---12------------------------------------19------
b|--------------------------------------------19---
g|-------------------------------------------------
d|-------------------------------------------------
a|-------------------------------------------------
E|-------------------------------------------------
        He takes the things you gave to me 

Gtr2
e|-------------------------------------------------
b|-------------------------------------------------
g|---9-x9x9x9x9-9x9x9x9x9-9-x9x9x9x9-9x9x9x9x9-----
d|---7-x7x7x7x7-7x7x7x7x7-7-x7x7x7x7-7x7x7x7x7-----
a|-------------------------------------------------
E|-------------------------------------------------
And even in the coldest place 


Bridge
Iím just an empty space 

Chorus(x2)

Walking in your footsteps 
I used to walk by your side 
How could you leave me 
On the very edge of suicide 
Iím lost without you 
But well I know you go your own way 
You never needed me no matter what you say 

Bass Solo
-----------------------------------------------------
-----------------------------------------------------
---2-3-2-3-2---2-3-5-3-2---2-3-2-3-2---2-3-5-7-(7)---
-------------3-----------3-----------3---------------

Guitar Solo
------------------------------------------
------------------------------------------
---14---/17---16--/17--\16--\14--\12------
------------------------------------------
------------------------------------------
------------------------------------------

------------------------------------------
------------------------------------------
---14---/17---16--/17--\16--\14--\12------
------------------------------------------
------------------------------------------
------------------------------------------

------------------------------------------
------13---15---13---12--12h13-12---------
---14---14---14---14--------------14-12---
------------------------------------------
------------------------------------------
------------------------------------------

------------------------------------------
------13---15---13---12--12h13-12---------
---14---14---14---14--------------14-12---
------------------------------------------
------------------------------------------
------------------------------------------

--------
--------
---14~~-
--------
--------
--------

Pre-Chorus
--------0------0--------------------------
------1------1-----1--------3-----3-------
-------------------------4------4-----4---
------------------------------------------
---0------0------0------------------------
----------------------3-------3-----3-----
w/delay

------------------------------------------
-------6-----6---6------------------------
-----7-----7-------------10-------10------
----------------------10-------10---------
---5-----5----------8--------8------------
------------------------------------------
w/delay

Chorus(x4)

End Chord

-----------
-----------
-----------
---7~~~\---
---7~~~\---
---5~~~\---
Comments