Stills The - Still In Love Song Chords & Tabs

 

Still In Love Song Chords & Tabs

Stills The Chords & Tabs

Version: 1 Type: Tab 0 ratings
1 star 2 stars 3 stars 4 stars 5 stars
comments

Still In Love Song Tab

   
The Stills - Still in love song
Tab by Lee Z. liorzil@hotmail.com


G:         ( 3 2 0 0 3 0 )
Asus2:  ( 0 0 2 2 0 0 )
B:         ( x 2 4 4 4 2 )
E:         ( 0 2 2 1 0 0 )
Dsus2:  ( x 0 0 2 3 0 )
C:         ( 0 3 2 0 1 0 )

Intro: 

repeat 10 times:
-----------2---------------------
----------------------------------
----------------------------------
-----------2---------------------
----------------------------------
----------------------------------

repeat 2 times:
--14--------------14-------------14-------15--------------14--------------14-------12--------------12-------------12--------12--------------12------------12---------
--------12-------------12-------------12--------12--------------12-------------12--------12--------------12-------------12--------12-------------12------------12----
--------------12-------------12------------------------12--------------12-------------------------12-------------12-------------------------12-------------12--------------
---------------------------------------------------------------------------------------------------------------------------------------------------------------------------------------
---------------------------------------------------------------------------------------------------------------------------------------------------------------------------------------
---------------------------------------------------------------------------------------------------------------------------------------------------------------------------------------

G                    
We were lovers  
Asus2
we were kissers
B                          
we were holders of hands 
E          Dsus2        C
we were make believers 
      Asus2            
just losing time and...
[ Tab from: http://www.guitartabs.cc/tabs/s/stills_the/still_in_love_song_tab.html ]
G                     Asus2
you said you rather live in TV land
B                           
then say that you care 
E        Dsus2        C
but you don’t that’s heartless and I
Asus2
will not cry

Chorus:
guitar 1                                                                         guitar 2
-----------------------------------------------------------------------------       -----12--------------12--------------12-----------
-----------------------------------------------------------------------------       -----------12--------------12-------------12------
-------------5---4----------------------------------------------------------       ----------------12--------------12-----------------
-------------5---4----------------------5--4------------------------------       ------------------------------------------------------ repeat
-------------3---2----------------------5--4------------------------------       ------------------------------------------------------
---------------------0-0-2-2-3--0----3--2----0-0-2-2-3--0---------       ------------------------------------------------------
But I’m still in love and I’m still in love 
and I’m still in love and I’m still in love

Your dreams of acting on screen 
what do they mean 
you’ll be dancing senseless 
in your bedroom and...
you find yourself out of a job and 
before to long you’ll be selling lemonade to the 
overpayed


Chorus:
And I’m still in love and I’m still in love
and I’m still in love and I’m still in love
And I'm still in love


I remember 
it was summer 
I was out of my head 
but you weren't 
you're selfish and a waste of space


Chorus:
But I’m still in love and I’m still in love
and I’m still in love and I’m still in love
and I’m still in love 
and I’m still in love
and I’m still......... in love

Comments