Stills - Yesterday Never Tomorrows Chords & Tabs

 

Yesterday Never Tomorrows Chords & Tabs

Stills Chords & Tabs

Version: 1 Type: Tab 0 ratings
1 star 2 stars 3 stars 4 stars 5 stars
comments

Yesterday Never Tomorrows Tab

   
The Stills
Yesterday Never Tomorrows - from Logic will brake your heart
 
Tabbed by: Mark Bryce	24th Feb 2005

Email: Brycey81a@hotmail.com
Web: www.brycey.co.uk



_____________________________________________________

Tuning: EADGBe

Legend
	h    - hammer on
	p    - pull off
	/    - slide up
	

Guitar 1: Rhythm Guitar
Guitar 2: Lead Guitar




Intro:


Guitar 2


e|----------------------|----------------------|
B|----10-9--------------|---10-9---------------|
G|----------------11-9--|---------------11-9---| (x2)
D|-7-------11--11-------|-7-------11--11-------|
A|----------------------|----------------------|
E|----------------------|----------------------|



Guitar 1: (faint)


   ...Tremelo picked.........................

e|-0-0-0-0-0-0-0-0-0-0-0-0-0-0-0-0-0-0-0-0-0-0-|
B|-5-5-5-5-5-5-5-5-5-5-5-5-5-5-5-5-5-5-5-5-5-5-|
G|---------------------------------------------| (x2)
D|---------------------------------------------|
A|---------------------------------------------|
E|---------------------------------------------|


End on:

Guitar 2:

e|----------------------|----------------------|
B|----10-9--------------|---10-9---------------|
G|----------------11-9--|---------------11-13--| 
D|-7-------11--11-------|-7-------11--11-------|
A|----------------------|----------------------|
E|----------------------|----------------------|



____________________________________________________



Verse 1 


My looks pushed too far, I'll get wrecked in some bar

I've lost it, my foot's on a nail



Guitar 1:

   ...Tremelo picked.........................

e|-0-0-0-0-0-0-0-0-0-0-0-0-0-0-0-0-0-0-0-0-0-0-|
B|-5-5-5-5-5-5-5-5-5-5-5-5-5-5-5-5-5-5-5-5-5-5-|
G|---------------------------------------------| 
D|---------------------------------------------|
A|---------------------------------------------|
E|---------------------------------------------|


Guitar 2:


e|----------------------|----------------------|
B|----10-9--------------|---10-9---------------|
G|----------------11-9--|---------------11-9---| 
D|-7-------11--11-------|-7-------11--11-------|
A|----------------------|----------------------|
E|----------------------|----------------------|


The dark winter snows bright, please stay here tonight

I'll cry my face straight through my pillow



Guitar 2:


e|------------------------|
B|----10-9----------------|
G|----------------11-13---| 
D|-7-------11--11---------|
A|------------------------|
E|------------------------|



____________________________________________________


Chrous 1:


Some things last forever, why can't this last forever


Guitar 1:

     D5        D5            A5

e|---------------------------------------------|
B|---------------------------------------------|
G|---7---------7-------------------------------| 
D|---7---------7-------------5-----------------|
A|---5---------5-------------5-----------------|
E|---------------------------7-----------------|


Nothing lasts forever, I hope this lasts forever



Guitar 1:

     D5        D5           A5

e|---------------------------------------------|
B|---------------------------------------------|
G|---7---------7-------------------------------| 
D|---7---------7-------------5-----------------|
A|---5---------5-------------5-----------------|
E|---------------------------7-----------------|




Guitar 2:

e|---------12----------12----|
B|----10-9--------10-9-------|
G|---------------------------| 
D|---------------------------| (x2)
A|---------------------------|
E|---------------------------|



[ Tab from: http://www.guitartabs.cc/tabs/s/stills/yesterday_never_tomorrows_tab.html ]
____________________________________________________



Verse 2 


More sex, more goodbye's


I love you and I won't let myself let you go



Guitar 1:

   ...Tremelo picked.........................

e|-0-0-0-0-0-0-0-0-0-0-0-0-0-0-0-0-0-0-0-0-0-0-|
B|-5-5-5-5-5-5-5-5-5-5-5-5-5-5-5-5-5-5-5-5-5-5-|
G|---------------------------------------------| 
D|---------------------------------------------|
A|---------------------------------------------|
E|---------------------------------------------|


Guitar 2:

e|---------------------|-----------------------|
B|----10-9-------------|-------9-10--10-9------|
G|----------------11-9-|---9--------------9----| 
D|-7-------11--11------|-7---9--------------11-|
A|---------------------|-----------------------|
E|---------------------|-----------------------|



e|----------------------|----------------------|
B|-------9-10--10-9-----|---10-9---------------|
G|---9--------------9---|---------------11-13--| 
D|-7---9--------------11|-7-------11--11-------|
A|----------------------|----------------------|
E|----------------------|----------------------|




____________________________________________________


Chrous 2:


Some things last forever, why can't this last forever


Guitar 1:

     D5        D5           A5

e|---------------------------------------------|
B|---------------------------------------------|
G|---7---------7-------------------------------| 
D|---7---------7-------------5-----------------|
A|---5---------5-------------5-----------------|
E|---------------------------7-----------------|


Nothing lasts forever, I hope this lasts forever


Guitar 1:

     D5        D5           A5

e|---------------------------------------------|
B|---------------------------------------------|
G|---7---------7-------------------------------| 
D|---7---------7-------------5-----------------|
A|---5---------5-------------5-----------------|
E|---------------------------7-----------------|


Guitar 2:

e|---------12----------12----|
B|----10-9--------10-9-------|
G|---------------------------| 
D|---------------------------| (x2)
A|---------------------------|
E|---------------------------|




____________________________________________________


outro part 1:


Guitar 2:


e|----------------------|----------------------|
B|----10-9--------------|---10-9---------------|
G|----------------11-9--|---------------11-9---| (x2)
D|-7-------11--11-------|-7-------11--11-------|
A|----------------------|----------------------|
E|----------------------|----------------------|



e|----------------------|----------------------|
B|-------9-10--10-9-----|-------9-10--10-9-----|
G|---9--------------9---|---9--------------9---| 
D|-7---9--------------11|-7---9--------------11| (x2)
A|----------------------|----------------------|
E|----------------------|----------------------|



e|----------------------|----------------------|
B|----10-9--------------|---10-9---------------|
G|----------------11-13-|---------------11-13--| (x3)
D|-7-------11--11-------|-7-------11--11-------|
A|----------------------|----------------------|
E|----------------------|----------------------|


e|----------------------|
B|----------------------|
G|-13-11-10-------------|
D|----------------------|
A|----------------------|
E|----------------------|


outro part 2:


Guitar 1:

     e      B      e      B

e|----------7-------------7-------|
B|---9------7------9------7-------|
G|---9------8------9------8-------| repeat to fade
D|---9------9------9------9-------|
A|---7------9------7------9-------|
E|----------7-------------7-------|



The End

By Mark Bryce
Comments