Stills - Still In Love Song Chords & Tabs

 

Still In Love Song Chords & Tabs

Stills Chords & Tabs

Version: 2 Type: Tab 0 ratings
1 star 2 stars 3 stars 4 stars 5 stars
comments

Still In Love Song Tab

Band : The stills
Song :still in love song
Tabber: Wrath_014
Intro: GT1:

e|14----14---14-15---15----15---12-----12----12----12---|
B|--12----12--12--12---12----12---12-----12----12----12-|
G|----12----12------12---12---------12-----12----12-----|
D|------------------------------------------------------|
A|------------------------------------------------------|
E|------------------------------------------------------|

Intro : GT2:
e|------------------------------------------------------|
B|------------------------------------------------------|
G|999999------------------------------------------------|
D|999999------------------------------------------------|
A|777777------------------------------------------------|
E|------------------------------------------------------|
[ Tab from: http://www.guitartabs.cc/tabs/s/stills/still_in_love_song_tab_ver_2.html ]
Veres:
e|------------------------------------------------------| 
B|------------------------------------------------------| 
G|------------------------------------------------------| 
D|-5---7---9---14---12---10---7-------------------------| 
A|-5x2-7x2-9x2-14x2-12x2-10x2-7x2-----------------------| 
E|-3---5---7---12---10---8----5-------------------------| 

Chorus:GT1:
e|------------------------------------------------------|
B|------------------------------------------------------|
G|999999------------------------------------------------|
D|999999------------------------------------------------|
A|777777------------------------------------------------|
E|------------------------------------------------------|

Chorus:GT2:
e|12----12----12----12----12----12----------------------|
B|--12----12----12----12----12----12--------------------|
G|----12----12----12----12----12------------------------|
D|------------------------------------------------------|
A|------------------------------------------------------|
E|------------------------------------------------------|

Thats all.... enjoy and don't forget to Rate!
Comments