Stills - Still In Love Song Chords & Tabs

 

Still In Love Song Chords & Tabs

Stills Chords & Tabs

Version: 1 Type: Tab 0 ratings
1 star 2 stars 3 stars 4 stars 5 stars
comments

Still In Love Song Tab

bueno espero esto les sirva la saque de oido


intro:

1 guitarra

e----7--------------|
b----7--------------|
g----9--------------|
d----9---por10------|veces
a----7--------------|
e----7--------------|

1 guitarra/ versos
[ Tab from: http://www.guitartabs.cc/tabs/s/stills/still_in_love_song_tab.html ]
e----3----------5----------7-------------------------------------------------|
b----3----------5----------7-------------------------------------------------|
g----4----------6----------8-------------------4----------6-----------2------|
d----5-(por8)---7-(por8)---9-(por8)---2-(por4)-4-(por4)---6-(por16)---2-(16--|
a----5----------7----------9----------2--------2----------3-----------0------|
e----3----------5----------7----------0--------------------------------------|

del coro no estoy seguro

coro: 1 guitarra

e-----8-------------7----------|
b-----8-------------7----------|
g-----8-------------9----------|
d-----10-(por16)----9-(por16)--|
a-----10------------7----------|
e-----8-------------7----------|
Comments