Stills - Still In Love Song Chords & Tabs

 

Still In Love Song Chords & Tabs

Stills Chords & Tabs

Version: 1 Type: Bass Tab 0 ratings
1 star 2 stars 3 stars 4 stars 5 stars
comments

Still In Love Song Bass Tab

The Stills - "Still In Love Song"

Part 1          
G----------------|G----------------------|
D----------------|D----------------------|
A----------------|A-------------7(16x)---|
E-0(80x)---------|E-8(8x)-7(8x)----------|

Part 2
G----------------------------------------------------|
D----------------------------------------------------|
A-------------------------2(4x)--3(8x)--0(16x)-------|
E--3(8x)--5(8x)--7(8x)--0(4x)------------------------|

Part 3
G----------------------------------------------------|
D----------------------------------------------------|
A-----------------------------2(4x)-3(16x)--0(16x)---|
E--3(8x)--5(8x)--7(8x)--0(4x)------------------------|
[ Tab from: http://www.guitartabs.cc/tabs/s/stills/still_in_love_song_btab.html ]
Part 4 (3x)
G----------------------------------------------------|
D------------------9-----11------12------------------|
A---------------7-----9------10------7-Slide--->-----|
E--8(4x)--7(4x)--------------------------------------|

Part 5
G--------------------------------|
D--------------------------------|
A--------------------------------|
E--8(4x)--7(4x)--0-Let Ring------|

Part 6
G-------------------------------|
D-------------------------------|
A----0(16x)--3(8x)--5(16x)------|
E-------------------------------|

PAUSE
REPEAT PART 1

G----------------------------------------------------|
D----------------------------------------------------|
A-----------------------------2(4x)-3(16x)--0(32x)---|
E--0(8x)--3(8x)--5(8x)--0(4x)------------------------|

REPEAT PART 4 (7x), then PART 5 (1x)
Comments