Stills - Ready For It Chords & Tabs

 

Ready For It Chords & Tabs

Stills Chords & Tabs

Version: 1 Type: Tab 0 ratings
1 star 2 stars 3 stars 4 stars 5 stars
comments

Ready For It Tab

   



The Stills

Ready for it - from Logic will brake your heart
 
Tabbed by: Mark Bryce	20th April 2005

Email: Brycey81a@hotmail.com
Web: www.brycey.co.uk



_____________________________________________________



Tuning: EADGBe

Legend
	h    - hammer on
	p    - pull off
	/    - slide up
	x    - muted note
	

Guitar 1: Rhythm Guitar
Guitar 2: Lead Guitar



_____________________________________________________



Intro part 1:


Guitar 1
		       G	

e|---3-3-3-3-3-3-3-3-3-3-3-3-3-3-3-3-3-3-3-3---|
B|---3-3-3-3-3-3-3-3-3-3-3-3-3-3-3-3-3-3-3-3---|
G|---4-4-4-4-4-4-4-4-4-4-4-4-4-4-4-4-4-4-4-4---| 
D|---5-5-5-5-5-5-5-5-5-5-5-5-5-5-5-5-5-5-5-5---|
A|---5-5-5-5-5-5-5-5-5-5-5-5-5-5-5-5-5-5-5-5---|
E|---3-3-3-3-3-3-3-3-3-3-3-3-3-3-3-3-3-3-3-3---|


Guitar 2


e|---------------------------------------------|
B|---------------------------------------------|
G|---11--9--7--6--4--2-/-14-12-11-11b12r11-9---| (x2)
D|---------------------------------------------|
A|---------------------------------------------|
E|---------------------------------------------|




_____________________________________________________



Verse 1:


I'll see you in a second, a dirty little minute
That was an hour ago, don't censor me


Guitar 1

      C#m	   Bm		C#m	    Bm

e|---4-4-4--2-2-2-2-2-2-2-2----4-4-4--2-2-2-2-2-2-2-2----|
B|---5-5-5--3-3-3-3-3-3-3-3----5-5-5--3-3-3-3-3-3-3-3----|
G|---6-6-6--4-4-4-4-4-4-4-4----6-6-6--4-4-4-4-4-4-4-4----| 
D|---6-6-6--4-4-4-4-4-4-4-4----6-6-6--4-4-4-4-4-4-4-4----| (x2)
A|---4-4-4--2-2-2-2-2-2-2-2----4-4-4--2-2-2-2-2-2-2-2----|
E|-------------------------------------------------------|




So picture me, there's no change the sun goes down


Guitar 1

      	      Bm		         C#m	    

e|---2-2-2-2-2-2-2-2-2-2-2-2---4-4-4-4-4-4-4-4-4-4-4-4---|
B|---3-3-3-3-3-3-3-3-3-3-3-3---5-5-5-5-5-5-5-5-5-5-5-5---|
G|---4-4-4-4-4-4-4-4-4-4-4-4---6-6-6-6-6-6-6-6-6-6-6-6---| 
D|---4-4-4-4-4-4-4-4-4-4-4-4---6-6-6-6-6-6-6-6-6-6-6-6---|
A|---2-2-2-2-2-2-2-2-2-2-2-2---4-4-4-4-4-4-4-4-4-4-4-4---|
E|-------------------------------------------------------|


Guitar 2

e|-------------------------------------------------------|
B|-------------------------------------------------------|
G|---4-4-4-4-4-4-4-4-4-4-4-4---6-6-6-6-6-6-6-6-6-6-6-6---| 
D|-------------------------------------------------------|
A|-------------------------------------------------------|
E|-------------------------------------------------------|


_____________________________________________________



Chrous 1:


I'm ready for it
I'm ready for it


Guitar 1
		       G	

e|---3-3-3-3-3-3-3-3-3-3-3-3-3-3-3-3-3-3-3-3---|
B|---3-3-3-3-3-3-3-3-3-3-3-3-3-3-3-3-3-3-3-3---|
G|---4-4-4-4-4-4-4-4-4-4-4-4-4-4-4-4-4-4-4-4---| 
D|---5-5-5-5-5-5-5-5-5-5-5-5-5-5-5-5-5-5-5-5---|
A|---5-5-5-5-5-5-5-5-5-5-5-5-5-5-5-5-5-5-5-5---|
E|---3-3-3-3-3-3-3-3-3-3-3-3-3-3-3-3-3-3-3-3---|


Guitar 2


e|---------------------------------------------|
B|---------------------------------------------|
G|---11--9--7--6--4--2-/-14-12-11-11b12r11-9---| (x2)
D|---------------------------------------------|
A|---------------------------------------------|
E|---------------------------------------------|


_____________________________________________________



Interlude 1:


Guitar 1    		A  	

e|---5-5-5-5-5-5-5-5-5-5--5-5-5-5-5-5-5-5-5-5--|
B|---5-5-5-5-5-5-5-5-5-5--5-5-5-5-5-5-5-5-5-5--|
G|---6-6-6-6-6-6-6-6-6-6--6-6-6-6-6-6-6-6-6-6--| 
D|---7-7-7-7-7-7-7-7-7-7--7-7-7-7-7-7-7-7-7-7--|
A|---7-7-7-7-7-7-7-7-7-7--7-7-7-7-7-7-7-7-7-7--|
E|---5-5-5-5-5-5-5-5-5-5--5-5-5-5-5-5-5-5-5-5--|


Guitar 2

e|---------------------------------------------|
B|---------------------------------------------|
G|---14-14-14-14-14-14/-12/-11-11-11-11-11-11--| 
D|---------------------------------------------|
A|---------------------------------------------|
E|---------------------------------------------|



Guitar 1     A   		   E

e|---5-5-5-5-5-5-5-5-5-5-----------------------|
B|---5-5-5-5-5-5-5-5-5-5--9-9-9-9-9-9-9-9-9-9--|
G|---6-6-6-6-6-6-6-6-6-6--9-9-9-9-9-9-9-9-9-9--| 
D|---7-7-7-7-7-7-7-7-7-7--9-9-9-9-9-9-9-9-9-9--|
A|---7-7-7-7-7-7-7-7-7-7--7-7-7-7-7-7-7-7-7-7--|
E|---5-5-5-5-5-5-5-5-5-5-----------------------|

Guitar 2

e|---------------------------------------------|
B|---------------------/-17-17-17-17-17-17-17--|
G|---11-11-11-11-11-11-------------------------| 
D|---------------------------------------------|
A|---------------------------------------------|
E|---------------------------------------------|



Guitar 1    		A  	

e|---5-5-5-5-5-5-5-5-5-5--5-5-5-5-5-5-5-5-5-5--|
B|---5-5-5-5-5-5-5-5-5-5--5-5-5-5-5-5-5-5-5-5--|
G|---6-6-6-6-6-6-6-6-6-6--6-6-6-6-6-6-6-6-6-6--| 
D|---7-7-7-7-7-7-7-7-7-7--7-7-7-7-7-7-7-7-7-7--|
A|---7-7-7-7-7-7-7-7-7-7--7-7-7-7-7-7-7-7-7-7--|
E|---5-5-5-5-5-5-5-5-5-5--5-5-5-5-5-5-5-5-5-5--|

Guitar 2

e|---------------------------------------------|
B|---------------------------------------------|
G|---14-14-14-14-14-14/-12/-11-11b12-12-12-12--| 
D|---------------------------------------------|
A|---------------------------------------------|
E|---------------------------------------------|



Guitar 1      A			   G  	

e|---5-5-5-5-5-5-5-5-5-5--3-3-3-3-3-3-3-3-3-3--|
B|---5-5-5-5-5-5-5-5-5-5--3-3-3-3-3-3-3-3-3-3--|
G|---6-6-6-6-6-6-6-6-6-6--4-4-4-4-4-4-4-4-4-4--| 
D|---7-7-7-7-7-7-7-7-7-7--5-5-5-5-5-5-5-5-5-5--|
A|---7-7-7-7-7-7-7-7-7-7--5-5-5-5-5-5-5-5-5-5--|
E|---5-5-5-5-5-5-5-5-5-5--3-3-3-3-3-3-3-3-3-3--|

Guitar 2

e|----------------------15-15-15-15-15-15-15---|
B|---------------------------------------------|
G|---12-12-12r11-11-11-------------------------| 
D|---------------------------------------------|
A|---------------------------------------------|
E|---------------------------------------------|



_____________________________________________________



Verse 2:


Days seem to pass, crowds move too fast
About an hour ago, we hit a tree


Guitar 1
[ Tab from: http://www.guitartabs.cc/tabs/s/stills/ready_for_it_tab.html ]
      C#m	   Bm		C#m	    Bm

e|---4-4-4--2-2-2-2-2-2-2-2----4-4-4--2-2-2-2-2-2-2-2----|
B|---5-5-5--3-3-3-3-3-3-3-3----5-5-5--3-3-3-3-3-3-3-3----|
G|---6-6-6--4-4-4-4-4-4-4-4----6-6-6--4-4-4-4-4-4-4-4----| 
D|---6-6-6--4-4-4-4-4-4-4-4----6-6-6--4-4-4-4-4-4-4-4----| (x2)
A|---4-4-4--2-2-2-2-2-2-2-2----4-4-4--2-2-2-2-2-2-2-2----|
E|-------------------------------------------------------|



We bruised your knee, keep on saying you love me


Guitar 1

      	      Bm		         C#m	    

e|---2-2-2-2-2-2-2-2-2-2-2-2---4-4-4-4-4-4-4-4-4-4-4-4---|
B|---3-3-3-3-3-3-3-3-3-3-3-3---5-5-5-5-5-5-5-5-5-5-5-5---|
G|---4-4-4-4-4-4-4-4-4-4-4-4---6-6-6-6-6-6-6-6-6-6-6-6---| 
D|---4-4-4-4-4-4-4-4-4-4-4-4---6-6-6-6-6-6-6-6-6-6-6-6---|
A|---2-2-2-2-2-2-2-2-2-2-2-2---4-4-4-4-4-4-4-4-4-4-4-4---|
E|-------------------------------------------------------|

Guitar 2

e|-------------------------------------------------------|
B|-------------------------------------------------------|
G|---4-4-4-4-4-4-4-4-4-4-4-4---6-6-6-6-6-6-6-6-6-6-6-6---| 
D|-------------------------------------------------------|
A|-------------------------------------------------------|
E|-------------------------------------------------------|



_____________________________________________________


Chrous 2:


I'm ready for it
I'm ready for it


Guitar 1
		       G	

e|---3-3-3-3-3-3-3-3-3-3-3-3-3-3-3-3-3-3-3-3---|
B|---3-3-3-3-3-3-3-3-3-3-3-3-3-3-3-3-3-3-3-3---|
G|---4-4-4-4-4-4-4-4-4-4-4-4-4-4-4-4-4-4-4-4---| 
D|---5-5-5-5-5-5-5-5-5-5-5-5-5-5-5-5-5-5-5-5---|
A|---5-5-5-5-5-5-5-5-5-5-5-5-5-5-5-5-5-5-5-5---|
E|---3-3-3-3-3-3-3-3-3-3-3-3-3-3-3-3-3-3-3-3---|


Guitar 2


e|---------------------------------------------|
B|---------------------------------------------|
G|---11--9--7--6--4--2-/-14-12-11-11b12r11-9---| (x2)
D|---------------------------------------------|
A|---------------------------------------------|
E|---------------------------------------------|


_____________________________________________________



Interlude 2:


Loving me is a black hole

Guitar 1 

     A	

e|---0-----------------------|
B|---5-----------------------|
G|---6-----------------------|
D|---7-----------------------|
A|---7-----------------------|
E|---x-----------------------|


< Drum roll >



Guitar 1    		Bm  	

e|---2-2-2-2-2-2-2-2-2-2--2-2-2-2-2-2-2-2-2-2--|
B|---3-3-3-3-3-3-3-3-3-3--3-3-3-3-3-3-3-3-3-3--|
G|---4-4-4-4-4-4-4-4-4-4--4-4-4-4-4-4-4-4-4-4--| 
D|---4-4-4-4-4-4-4-4-4-4--4-4-4-4-4-4-4-4-4-4--|
A|---2-2-2-2-2-2-2-2-2-2--2-2-2-2-2-2-2-2-2-2--|
E|---------------------------------------------|


Guitar 2

e|---------------------------------------------|
B|---0-0-0-0-0-0-0-0-0-0-0-0-0-0-0-0-0-0-0-0---|
G|---4-4-4-4-4-4-4-4b5-5-5-5-5-5r4-4-4-4-4-4---| 
D|---------------------------------------------|
A|---------------------------------------------|
E|---------------------------------------------|



Guitar 1    		Bm  	

e|---2-2-2-2-2-2-2-2-2-2--2-2-2-2-2-2-2-2-2-2--|
B|---3-3-3-3-3-3-3-3-3-3--3-3-3-3-3-3-3-3-3-3--|
G|---4-4-4-4-4-4-4-4-4-4--4-4-4-4-4-4-4-4-4-4--| 
D|---4-4-4-4-4-4-4-4-4-4--4-4-4-4-4-4-4-4-4-4--|
A|---2-2-2-2-2-2-2-2-2-2--2-2-2-2-2-2-2-2-2-2--|
E|---------------------------------------------|

Guitar 2

e|---15----15----14----14----12----12----12b13-|
B|---------------------------------------------|
G|------0------0-----0-----0-----0-----0-------| 
D|---------------------------------------------|
A|---------------------------------------------|
E|---------------------------------------------|



_____________________________________________________


Chrous 3:


I'm ready for it
I'm ready for it


Guitar 1
		       G	

e|---3-3-3-3-3-3-3-3-3-3-3-3-3-3-3-3-3-3-3-3---|
B|---3-3-3-3-3-3-3-3-3-3-3-3-3-3-3-3-3-3-3-3---|
G|---4-4-4-4-4-4-4-4-4-4-4-4-4-4-4-4-4-4-4-4---| 
D|---5-5-5-5-5-5-5-5-5-5-5-5-5-5-5-5-5-5-5-5---|
A|---5-5-5-5-5-5-5-5-5-5-5-5-5-5-5-5-5-5-5-5---|
E|---3-3-3-3-3-3-3-3-3-3-3-3-3-3-3-3-3-3-3-3---|


Guitar 2


e|---------------------------------------------|
B|---------------------------------------------|
G|---11--9--7--6--4--2-/-14-12-11-11b12r11-9---| (x4)
D|---------------------------------------------|
A|---------------------------------------------|
E|---------------------------------------------|


_____________________________________________________


Outro:


Guitar 1
		       G	

e|---------------------------------------------|
B|---------------------------------------------|
G|--------4---------4----------4---------4-----| 
D|----------5---------5----------5---------5---| (x2)
A|-----5---------5----------5----------5-------|
E|---3---------3----------3----------3---------|



Guitar 1
		       G	
e|---------------------------------------------|
B|---------------------------------------------|
G|--------4---------4----------4---------4-----| 
D|----------5---------5----------5---------5---| 
A|-----5---------5----------5----------5-------|
E|---3---------3----------3----------3---------|

Guitar 2     	

e|--14---14---14---14---12---12---12---12------|
B|---------------------------------------------|
G|-----0----0----0----0----0----0----0----0----| 
D|---------------------------------------------| 
A|---------------------------------------------|
E|---------------------------------------------|



Guitar 1
		       G	
e|---------------------------------------------|
B|---------------------------------------------|
G|--------4---------4----------4---------4-----| 
D|----------5---------5----------5---------5---| 
A|-----5---------5----------5----------5-------|
E|---3---------3----------3----------3---------|

Guitar 2     	

e|--10---10---10---10---10---10---10---10------|
B|---------------------------------------------|
G|-----0----0----0----0----0----0----0----0----| 
D|---------------------------------------------| 
A|---------------------------------------------|
E|---------------------------------------------|



Repeat until fade.........



The End

By Mark Bryce
Comments