Stills - Love And Death Chords & Tabs

 

Love And Death Chords & Tabs

Stills Chords & Tabs

Version: 1 Type: Tab 0 ratings
1 star 2 stars 3 stars 4 stars 5 stars
comments

Love And Death Tab

   
 

The Stills
Love and Death - from Logic will brake your heart
 
Tabbed by: Mark Bryce	3rd March 2005

Email: Brycey81a@hotmail.com
Web: www.brycey.co.uk



_____________________________________________________

Tuning: EADGBe

Legend
	h    - hammer on
	p    - pull off
	/    - slide up
	\    - slide Down
		

Guitar 1: Rhythm Guitar
Guitar 2: Lead Guitar


Intro:


Guitar 1: 
   	
		E5		       A5		  B5

e|----------------------------------------------------------------------|
B|----------------------------------------------------------------------|
G|------------------------------2-2-2-2-2-2-2-2-2---4-4-4-4-4-4-4-4-4---|
D|--2-2-2-2-2-2-2-2-2-2-2-2-2---2-2-2-2-2-2-2-2-2---4-4-4-4-4-4-4-4-4---|
A|--2-2-2-2-2-2-2-2-2-2-2-2-2---0-0-0-0-0-0-0-0-0---2-2-2-2-2-2-2-2-2---|
E|--0-0-0-0-0-0-0-0-0-0-0-0-0-------------------------------------------|


Guitar 2: 
	
 	
e|----------------------------------------------------------------------|
B|----------------------------------------------------------------------|
G|--x--x-x-x--x-x-x--x-x-x--x-x-x--x--x--x--x--x--x--x--x-x-x-x-x-x--x--|
D|--x--x-x-x--x-x-x--x-x-x--x-x-x--x--x--x--x--x--x--x--x-x-x-x-x-x--x--| 
A|--7--7-5-7--7-5-7--7-5-7--7-5/10-10-10-10-10-10-12-10-9-9-9-9-9-10-12-|
E|----------------------------------------------------------------------|


_____________________________________________________


Verse 1 

i'll make my own way 
i'd make my own way 
don't bother counting on me 
loving me 
just act like im gone

oh this sorry joke 
you're a joke 
is all we really need 
there's nothing that i'd need 


Guitar 1: 
   	
		E5		   A5		  B5

e|-----------------------------------------------------------|
B|-----------------------------------------------------------|
G|---------------------------2-2-2-2-2-2-2---4-4-4-4-4-4-4---|
D|--2-2-2-2-2-2-2-2-2-2-2-2--2-2-2-2-2-2-2---4-4-4-4-4-4-4---|
A|--2-2-2-2-2-2-2-2-2-2-2-2--0-0-0-0-0-0-0---2-2-2-2-2-2-2---|
E|--0-0-0-0-0-0-0-0-0-0-0-0----------------------------------|



Guitar 2: 

	     Em		          Asus2	         B5

e|------------------------------------------------------------|
B|------0-------0-------0--------0-------0--------0-------0---|
G|----0---0---0---0---0---0----2---2---2---2----4---4---4---4-|
D|--2-------2-------2--------2-------2--------4-------4-------|
A|------------------------------------------------------------|
E|------------------------------------------------------------|



_____________________________________________________



Interlude 1


Guitar 1: 
   	
		E5		       A5		  B5

e|----------------------------------------------------------------------|
B|----------------------------------------------------------------------|
G|------------------------------2-2-2-2-2-2-2-2-2---4-4-4-4-4-4-4-4-4---|
D|--2-2-2-2-2-2-2-2-2-2-2-2-2---2-2-2-2-2-2-2-2-2---4-4-4-4-4-4-4-4-4---|
A|--2-2-2-2-2-2-2-2-2-2-2-2-2---0-0-0-0-0-0-0-0-0---2-2-2-2-2-2-2-2-2---|
E|--0-0-0-0-0-0-0-0-0-0-0-0-0-------------------------------------------|


Guitar 2: 
	
 	
e|----------------------------------------------------------------------|
B|----------------------------------------------------------------------|
G|--x--x-x-x--x-x-x--x-x-x--x-x-x--x--x--x--x--x--x--x--x-x-x-x-x-x--x--|
D|--x--x-x-x--x-x-x--x-x-x--x-x-x--x--x--x--x--x--x--x--x-x-x-x-x-x--x--| 
A|--7--7-5-7--7-5-7--7-5-7--7-5/10-10-10-10-10-10-12-10-9-9-9-9-9-10-12-|
E|----------------------------------------------------------------------|


____________________________________________________


Verse 2 


too late and too bad 
i'm stuck feeling bad 
without you i'm a mess without you 
just don't know 

this is really not a joke 
you're all i really need 
you're all i really need 


Guitar 1: 
   	
		E5		   A5		  B5

e|-----------------------------------------------------------|
B|-----------------------------------------------------------|
G|---------------------------2-2-2-2-2-2-2---4-4-4-4-4-4-4---|
D|--2-2-2-2-2-2-2-2-2-2-2-2--2-2-2-2-2-2-2---4-4-4-4-4-4-4---|
A|--2-2-2-2-2-2-2-2-2-2-2-2--0-0-0-0-0-0-0---2-2-2-2-2-2-2---|
E|--0-0-0-0-0-0-0-0-0-0-0-0----------------------------------|



Guitar 2: 

	     Em		          Asus2	         B5

e|------------------------------------------------------------|
B|------0-------0-------0--------0-------0--------0-------0---|
G|----0---0---0---0---0---0----2---2---2---2----4---4---4---4-|
D|--2-------2-------2--------2-------2--------4-------4-------|
A|------------------------------------------------------------|
E|------------------------------------------------------------|



____________________________________________________



Chrous 1


and i'm just so bored of wasting my time 
love and death are always on my mind 
and i'm just so sick of wasting my time 
love and death are always on my mind 


Guitar 1: 
   	
	 G5	           A5	           E5	       

e|---------------------------------------------------|
B|---------------------------------------------------|
G|---------------------------------------------------|
D|-5-5-5-5-5-5-5-5--7-7-7-7-7-7-7-7--2-2-2-2-2-2-2-2-|
A|-5-5-5-5-5-5-5-5--7-7-7-7-7-7-7-7--2-2-2-2-2-2-2-2-|
E|-3-3-3-3-3-3-3-3--5-5-5-5-5-5-5-5--0-0-0-0-0-0-0-0-|



Guitar 2: 

	   

e|-----------------------0-----------0-3-2-----3-2---|
B|---------------------0---0---0---0-------3-0-----0-|
G|---0---0---0---0---0-------0---0-------------------|
D|-5---5---5---5---5---------------------------------|
A|---------------------------------------------------|
E|---------------------------------------------------|


Guitar 1: 
	
	 C5	         B5	           A5	       

e|---------------------------------------------------|
B|---------------------------------------------------|
G|-5-5-5-5-5-5-5-5--4-4-4-4-4-4-4-4------------------|
D|-5-5-5-5-5-5-5-5--4-4-4-4-4-4-4-4--7-7-7-7-7-7-7-7-|
A|-3-3-3-3-3-3-3-3--2-2-2-2-2-2-2-2--7-7-7-7-7-7-7-7-|
E|-----------------------------------5-5-5-5-5-5-5-5-|


Guitar 2: 


    
e|---0---0---0-----0---0---0---0----------------------|
B|-5---5---5---5/8---8---8---8---8--------------------|
G|-----------------------------------7---7---7---7----|
D|---------------------------------9---9---9---9---9--|
A|----------------------------------------------------|
E|----------------------------------------------------|



____________________________________________________



Interlude


Guitar 1: 
   	
		E5		       A5		  B5

e|----------------------------------------------------------------------|
B|----------------------------------------------------------------------|
G|------------------------------2-2-2-2-2-2-2-2-2---4-4-4-4-4-4-4-4-4---|
D|--2-2-2-2-2-2-2-2-2-2-2-2-2---2-2-2-2-2-2-2-2-2---4-4-4-4-4-4-4-4-4---|
A|--2-2-2-2-2-2-2-2-2-2-2-2-2---0-0-0-0-0-0-0-0-0---2-2-2-2-2-2-2-2-2---|
E|--0-0-0-0-0-0-0-0-0-0-0-0-0-------------------------------------------|

[ Tab from: http://www.guitartabs.cc/tabs/s/stills/love_and_death_tab.html ]
Guitar 2: 
	
 	
e|----------------------------------------------------------------------|
B|----------------------------------------------------------------------|
G|--x--x-x-x--x-x-x--x-x-x--x-x-x--x--x--x--x--x--x--x--x-x-x-x-x-x--x--|
D|--x--x-x-x--x-x-x--x-x-x--x-x-x--x--x--x--x--x--x--x--x-x-x-x-x-x--x--| 
A|--7--7-5-7--7-5-7--7-5-7--7-5/10-10-10-10-10-10-12-10-9-9-9-9-9-10-12-|
E|----------------------------------------------------------------------|



Guitar 1: 
   	
	  B5

e|-----------------------|
B|-----------------------|
G|---4-4-4-4-4-4-4-4-4---|
D|---4-4-4-4-4-4-4-4-4---|
A|---2-2-2-2-2-2-2-2-2---|
E|-----------------------|



Guitar 2: 
	
 	
e|-0--0--0--0--0--0--0--0--|
B|-12-12-12-12-12-12-12-12-|
G|-------------------------|
D|-------------------------| 
A|-------------------------|
E|-------------------------|



____________________________________________________




Verse 3 

i'll make my own way 
i'd make my own way 
don't bother counting on me 
loving me 
just act like im gone

oh this sorry joke 
you're a joke 
is all we really need 
there's nothing that i'd need 


Guitar 1: 
   	
		E5		       A5		  B5

e|----------------------------------------------------------------------|
B|----------------------------------------------------------------------|
G|------------------------------2-2-2-2-2-2-2-2-2---4-4-4-4-4-4-4-4-4---|
D|--2-2-2-2-2-2-2-2-2-2-2-2-2---2-2-2-2-2-2-2-2-2---4-4-4-4-4-4-4-4-4---|
A|--2-2-2-2-2-2-2-2-2-2-2-2-2---0-0-0-0-0-0-0-0-0---2-2-2-2-2-2-2-2-2---|
E|--0-0-0-0-0-0-0-0-0-0-0-0-0-------------------------------------------|



Guitar 2: 
	
 	
e|----------------------------------------------------------------------|
B|----------------------------------------------------------------------|
G|--x--x-x-x--x-x-x--x-x-x--x-x-x--x--x--x--x--x--x--x--x-x-x-x-x-x--x--|
D|--x--x-x-x--x-x-x--x-x-x--x-x-x--x--x--x--x--x--x--x--x-x-x-x-x-x--x--| 
A|--7--7-5-7--7-5-7--7-5-7--7-5/10-10-10-10-10-10-12-10-9-9-9-9-9-10-12-|
E|----------------------------------------------------------------------|


____________________________________________________



Chrous 2


and i'm just so bored of wasting my time 
love and death are always on my mind 
and i'm just so sick of wasting my time 
love and death are always on my mind 


Guitar 1: 
   	
	 G5	           A5	           E5	       

e|---------------------------------------------------|
B|---------------------------------------------------|
G|---------------------------------------------------|
D|-5-5-5-5-5-5-5-5--7-7-7-7-7-7-7-7--2-2-2-2-2-2-2-2-|
A|-5-5-5-5-5-5-5-5--7-7-7-7-7-7-7-7--2-2-2-2-2-2-2-2-|
E|-3-3-3-3-3-3-3-3--5-5-5-5-5-5-5-5--0-0-0-0-0-0-0-0-|



Guitar 2: 

	   

e|-----------------------0-----------0-3-2-----3-2---|
B|---------------------0---0---0---0-------3-0-----0-|
G|---0---0---0---0---0-------0---0-------------------|
D|-5---5---5---5---5---------------------------------|
A|---------------------------------------------------|
E|---------------------------------------------------|


Guitar 1: 
	
	 C5	         B5	           A5	       

e|---------------------------------------------------|
B|---------------------------------------------------|
G|-5-5-5-5-5-5-5-5--4-4-4-4-4-4-4-4------------------|
D|-5-5-5-5-5-5-5-5--4-4-4-4-4-4-4-4--7-7-7-7-7-7-7-7-|
A|-3-3-3-3-3-3-3-3--2-2-2-2-2-2-2-2--7-7-7-7-7-7-7-7-|
E|-----------------------------------5-5-5-5-5-5-5-5-|


Guitar 2: 


    
e|---0---0---0-----0---0---0---0----------------------|
B|-5---5---5---5/8---8---8---8---8--------------------|
G|-----------------------------------7---7---7---7----|
D|---------------------------------9---9---9---9---9--|
A|----------------------------------------------------|
E|----------------------------------------------------|



____________________________________________________


Outro 


Guitar 1: 
	
         G5               B5                E5           
 
e|----------------------------------------------------|
B|----------------------------------------------------|
G|------------------4-4-4-4-4-4-4-4-------------------|
D|-5-5-5-5-5-5-5-5--4-4-4-4-4-4-4-4--2-2-2-2-2-2-2-2--|
A|-5-5-5-5-5-5-5-5--2-2-2-2-2-2-2-2--2-2-2-2-2-2-2-2--|
E|-3-3-3-3-3-3-3-3-------------------0-0-0-0-0-0-0-0--|


Guitar 2: 


e|----------------------------------------------------|
B|-12-12-12-12-12-12-12-12-12-12-12-12-12-12-12-12-12-|
G|----------------------------------------------------|
D|----------------------------------------------------|
A|----------------------------------------------------|
E|----------------------------------------------------|





Guitar 1: 

        C5                B5                A5
              
e|----------------------------------------------------|
B|----------------------------------------------------|
G|-5-5-5-5-5-5-5-5--4-4-4-4-4-4-4-4-------------------|
D|-5-5-5-5-5-5-5-5--4-4-4-4-4-4-4-4--7-7-7-7-7-7-7-7--|
A|-3-3-3-3-3-3-3-3--2-2-2-2-2-2-2-2--7-7-7-7-7-7-7-7--|
E|-----------------------------------5-5-5-5-5-5-5-5--|


Guitar 2: 


e|------------------------------------------------------------|
B|-13-13-13-13-13--12-12-12-12--10-12-13-10-10-10-10----------|
G|---------------------------------------------------12-14-12-|
D|------------------------------------------------------------|
A|------------------------------------------------------------|
E|------------------------------------------------------------|






Guitar 1: 
	
         G5               B5                E5           
 
e|----------------------------------------------------|
B|----------------------------------------------------|
G|------------------4-4-4-4-4-4-4-4-------------------|
D|-5-5-5-5-5-5-5-5--4-4-4-4-4-4-4-4--2-2-2-2-2-2-2-2--|
A|-5-5-5-5-5-5-5-5--2-2-2-2-2-2-2-2--2-2-2-2-2-2-2-2--|
E|-3-3-3-3-3-3-3-3-------------------0-0-0-0-0-0-0-0--|


Guitar 2: 


e|----------------------------------------------------|
B|-12----12----12----12----12-------------------------|
G|-14b16----16----16----16----r14-12-11-11h12p11-9-11-|
D|----------------------------------------------------|
A|----------------------------------------------------|
E|----------------------------------------------------|






Guitar 1: 

        C5                B5                A5
              
e|----------------------------------------------------|
B|----------------------------------------------------|
G|-5-5-5-5-5-5-5-5--4-4-4-4-4-4-4-4-------------------|
D|-5-5-5-5-5-5-5-5--4-4-4-4-4-4-4-4--7-7-7-7-7-7-7-7--|
A|-3-3-3-3-3-3-3-3--2-2-2-2-2-2-2-2--7-7-7-7-7-7-7-7--|
E|-----------------------------------5-5-5-5-5-5-5-5--|


Guitar 2: 


e|--------------15-14-12---12-------------------------|
B|-12----12-12-----------15---0--0--0-----------------|
G|-14b16-16-16----------------12-12-12-10-12-14-13~~~-|
D|----------------------------------------------------|
A|----------------------------------------------------|
E|----------------------------------------------------|



Fades out........


The End

By Mark Bryce
Comments