Stills - Love And Death Chords & Tabs

 

Love And Death Chords & Tabs

Stills Chords & Tabs

Version: 1 Type: Bass Tab 0 ratings
1 star 2 stars 3 stars 4 stars 5 stars
comments

Love And Death Bass Tab

Song: Love and Death
Artist: The Stills
Album: Logic Will Break Your Heart
Tabbed by: Amigo039
e-mail: don_amigo13@yahoo.com
Tuning: EADG

Note: Each note throughout the whole song is 1/16th of a whole note.
      It sounds even better with lead guitar parts but I'm still working 
      on it. Its pretty accurate and fun to play. Listen to the real
      song to help you with the tabs. No sweat.

1st Part
G|-----------------------------------------------------------|
D|-----------------7(x8)--9(x4)--7--9--7---------------------|     (X2)
A|--7(x12)--9(x4)-------------------------9------------------|
E|-----------------------------------------------------------|

2nd Part
G|----------------------------------------|------------------|
D|----------------------------------------|------------------|     
A|--7(x16)--0(x8)--2(x8)---Slide Up---(X3)|---0(x8)--2(x16)--|
E|----------------------------------------|------------------|

Repeat [1st Part]

Repeat [2nd Part]

3rd Part
G|--------------------------------------------------------------------------|
D|--------------------------------------------------------------------------|
A|--2(x8)--------7(x12)--5(x4)--3(x8)--2(x8)--0(x12)-0-0--Fast 7 Slide Down-|
E|---------2(x8)------------------------------------------------------------|
[ Tab from: http://www.guitartabs.cc/tabs/s/stills/love_and_death_btab.html ]
4th Part
G|--------------------------------------------------------------------------|
D|--------------------------------------------------------------------------|
A|--2(x8)--------7(x12)--5(x4)--3(x8)--2(x8)--5(x16)-----Fast 7 Slide Down--|
E|---------2(x8)------------------------------------------------------------|

[PAUSE]

Repeat [2nd Part]

Repeat [3rd Part]

Repeat [4th Part]

[5th Part]
G|--------------------------------------------------------------------------|
D|--5(x8)-------------------------------------------------------------------|
A|---------2(x8)--Slide up--5(x4)--Slide Down--3(x4)--2(x4)-----------------|
E|--------------------------------------------------------------------------|

[6th Part]
G|--------------------------------------------------------------------------|
D|-----------------------7---5-7-7-7---7(x4)--Slide Down--------------------|
A|--3(x8)--2(x8)--0(x4)----7---------7--------------------------------------|
E|--------------------------------------------------------------------------|

[7th Part]
G|--------------------------------------------------------------------------|
D|--------------------------------------------------------------------------|
A|---------2(x8)--Slide Up--7(x4)--5(x4)--3(x16)--2(x8)--5(x16)-------------|
E|--3(x8)-------------------------------------------------------------------|

Repeat [1st Part] (X4)

Fading Away Ending...
Comments