Stills - Gender Bombs Chords & Tabs

 

Gender Bombs Chords & Tabs

Stills Chords & Tabs

Version: 1 Type: Tab 0 ratings
1 star 2 stars 3 stars 4 stars 5 stars
comments

Gender Bombs Tab

   
-------------------------------------------------------------------------------
			     Gender Bombs (Intro) - The Stills
-------------------------------------------------------------------------------
Tabbed by: Mike Oxbig
Email: mikeoxbig@mail.com

Tuning: E
[ Tab from: http://www.guitartabs.cc/tabs/s/stills/gender_bombs_tab.html ]
Guitar: 1
e|-----------------------------------------|
B|-----------------------------------------|
G|--5-5-5-5-0-0-0-0------------------------|
D|-5-5-5-5-5-5-5-5-4-4-4-4---5-5-5-5-------|
A|-------------------5-5-5-5-7-7-7-7-------|
E|-----------------------------------------|

Guitar: 2
e|-----------------------------------------|
B|-15-------12------15----17-12------------|
G|-12-------9-------12----14-9-------------|
D|-12-------9-------12----14-9-------------|
A|-----------------------------------------|
E|-----------------------------------------|


| /  slide up
| \  slide down
| h  hammer-on
| p  pull-off
| ~  vibrato
| +  harmonic
| x  Mute note
===============================================================================
Comments