Stills - Allison Krausse Chords & Tabs

 

Allison Krausse Chords & Tabs

Stills Chords & Tabs

Version: 1 Type: Tab 0 ratings
1 star 2 stars 3 stars 4 stars 5 stars
comments

Allison Krausse Tab

   
-------------------------------------------------------------------------------
			     ALLISON KRAUSSE - The Stills
-------------------------------------------------------------------------------
Tabbed by: NowtheWorld
Album: Logic Will Break Your Heart
Distortion: slight
Tuning: Standard

e|--xx-4--4-4-x-7--7-7-7-7-7-7-7---------------------------------------------|
B|--xx-4--4-4-x-5--5-5-5-5-5-5-5--------x about 8----------------------------|
G|--xx-4--4-4-x-4--4-4-4-4-4-4-4---------------------------------------------|
D|---------------------------------------------------------------------------|
A|---------------------------------------------------------------------------|
E|---------------------------------------------------------------------------|

e|--0----0----0----0-----0--0------------------------------------------------|
B|----4----4----4----4----4--4-----------x 2---------------------------------|
G|---------------------------------------------------------------------------|
D|---------------------------------------------------------------------------|
A|---------------------------------------------------------------------------|
E|---------------------------------------------------------------------------|

e|---------------------------------------------------------------------------|
B|---------------------------------------------x 3---------------------------|
G|--------------------9--9-9-9-9-9-9-9---------------------------------------|
D|--6-6-6-6-6-6-6-6-9--9-9-9-9-9-9-9-----------------------------------------|
A|--6-6-6-6-6-6-6-6-7--7-7-7-7-7-7-7-----------------------------------------|
E|--4-4-4-4-4-4-4-4----------------------------------------------------------|

e|--0----0----0----0-----0--0------------------------------------------------|
B|----4----4----4----4----4--4----------------------------------------------|
G|---------------------------------------------------------------------------|
D|---------------------------------------------------------------------------|
A|---------------------------------------------------------------------------|
E|---------------------------------------------------------------------------|

e|---------------------------------------------------------------------------|
B|--------------------------------------------x 2----------------------------|
G|---------------------------------------------------------------------------|
D|--6-6-6-6-6-6-6-6-8-8-8-8-8-8-8-8------------------------------------------|
A|--6-6-6-6-6-6-6-6-8-8-8-8-8-8-8-8------------------------------------------|
E|--4-4-4-4-4-4-4-4-6-6-6-6-6-6-6-6------------------------------------------|

e|---------------------------------------------------------------------------|
B|---------------------------------------------x 4---------------------------|
G|--------------------9--9-9-9-9-9-9-9---------------------------------------|
D|--6-6-6-6-6-6-6-6-9--9-9-9-9-9-9-9-----------------------------------------|
A|--6-6-6-6-6-6-6-6-7--7-7-7-7-7-7-7-----------------------------------------|
E|--4-4-4-4-4-4-4-4----------------------------------------------------------|

e|--0----0----0----0-----0--0------------------------------------------------|
B|----4----4----4----4----4--4-----------x 2----------------------------------|
G|---------------------------------------------------------------------------|
D|---------------------------------------------------------------------------|
A|---------------------------------------------------------------------------|
E|---------------------------------------------------------------------------|

e|-[under rhythm guitar]-----------------------------------------------------|
B|-------------------------------------------------------------------x 4-----|
G|--13-13-13-13-13-13-13-13-15-15-15-16-16-16-16-16--------------------------|
D|---------------------------------------------------------------------------|
A|---------------------------------------------------------------------------|
E|---------------------------------------------------------------------------|
[ Tab from: http://www.guitartabs.cc/tabs/s/stills/allison_krausse_tab.html ]
e|--0----0----0----0-----0--0------------------------------------------------|
B|----4----4----4----4----4--4-----------x 3---------------------------------|
G|---------------------------------------------------------------------------|
D|---------------------------------------------------------------------------|
A|---------------------------------------------------------------------------|
E|---------------------------------------------------------------------------|

e|--xx-4--4-4-x-7--7-7-7-7-7-7-7---------------------------------------------|
B|--xx-4--4-4-x-5--5-5-5-5-5-5-5-------x 2-w/radio effect or less distortion-|
G|--xx-4--4-4-x-4--4-4-4-4-4-4-4---------------------------------------------|
D|---------------------------------------------------------------------------|
A|---------------------------------------------------------------------------|
E|---------------------------------------------------------------------------|
OR
e|--xx-4--4-4-x-7--7-7-7-7-7-7-7---------------------------------------------|
B|---------------------------------------------------------------------------|
G|---------------------------------------------------------------------------|
D|---------------------------------------------------------------------------|
A|---------------------------------------------------------------------------|
E|---------------------------------------------------------------------------|

e|---------------------------------------------------------------------------|
B|---------------------------------------------x 5---------------------------|
G|------------------9--9-9-9-9-9-9-9-----------------------------------------|
D|--6-6-6-6-6-6-6-6-9--9-9-9-9-9-9-9-----------------------------------------|
A|--6-6-6-6-6-6-6-6-7--7-7-7-7-7-7-7-----------------------------------------|
E|--4-4-4-4-4-4-4-4----------------------------------------------------------|

e|--0----0----0----0-----0--0------------------------------------------------|
B|----4----4----4----4----4--4-----------x 3---------------------------------|
G|---------------------------------------------------------------------------|
D|---------------------------------------------------------------------------|
A|---------------------------------------------------------------------------|
E|---------------------------------------------------------------------------|

e|--xx-4--4-4-x-7--7-7-7-7-7-7-7---------------------------------------------|
B|--xx-4--4-4-x-5--5-5-5-5-5-5-5--------x about 8----------------------------|
G|--xx-4--4-4-x-4--4-4-4-4-4-4-4---------------------------------------------|
D|---------------------------------------------------------------------------|
A|---------------------------------------------------------------------------|
E|---------------------------------------------------------------------------|
/
\Outro Solo
e|-[under rhythm guitar]-----------------------------------------------------|
B|--(9)(9)(9)(9)(9)(9)(9)(9)--11-11-11--12-12-12-12-12---------------x 2-----|
G|--/13-13-13-13-13-13-13-13-/15-15-15-/16-16-16-16-16-----------------------|
D|---------------------------------------------------------------------------|
A|---------------------------------------------------------------------------|
E|---------------------------------------------------------------------------|

e|-[under rhythm guitar]-----------------------------------------------------|
B|--/17--/16--/14--/12-/10-/9~-----------------------------------------------|
G|---------------------------------------------------------------------------|
D|---------------------------------------------------------------------------|
A|---------------------------------------------------------------------------|
E|---------------------------------------------------------------------------|

Then play some of those notes at random during the fade-out (add lots of reverb)
ENJOY!

| /  slide up
| \  slide down
| h  hammer-on
| p  pull-off
| ~  vibrato
| +  harmonic
| x  Mute note
===============================================================================
Comments