Still Remains - Worst Is Yet To Come Chords & Tabs

 

Worst Is Yet To Come Chords & Tabs

Still Remains Chords & Tabs

Version: 3 Type: Tab

Worst Is Yet To Come Tab

I've seen this intro tabbed out wrong at least three x's now and it being your first
tab is no excuse. All that means is that your ear-training sucks and you need to get
lessons or improve on your listening skills and not tab anything until it sounds right
rather then good enough. 

----------------------------------------------------------------------------|
----------------------------------------------------------------------------|
----------------------------------------------------------------------------|
-------------------------------3-3-3-3--------------------------------------|
---3-3-3-3---5-5-5-5--6-6-6-6-----------6-6-6-6---5-5-5-5-------------------|
----------------------------------------------------------------------------|

----------------------------------------------------------------------------|
----------------------------------------------------------------------------|
----------------------------------------------------------------------------|
-------------------------------5-5-5-5--------------------------------------|
---5-5-5-5---6-6-6-6--8-8-8-8-----------8-8-8-8---6-6-6-6--5-5-5-5----------|
----------------------------------------------------------------------------|

----------------------------------------------------------------------------|
----------------------------------------------------------------------------|
----------------------------------------------------------------------------|
-------------------------------3-3-3-3--------------------------------------|
---3-3-3-3---5-5-5-5--6-6-6-6-----------6-6-6-6---5-5-5-5-------------------|
----------------------------------------------------------------------------|

----------------------------------------------------------------------------|
----------------------------------------------------------------------------|
----------------------------------------------------------------------------|
-------------------------------5-5-5-5--------------------------------------|
---5-5-5-5---6-6-6-6--8-8-8-8-----------8-8-8-8---6-6-6-6-------------------|
----------------------------------------------------------------------------|
[ Tab from: http://www.guitartabs.cc/tabs/s/still_remains/worst_is_yet_to_come_tab_ver_3.html ]
----------------------------------------------------------------------------|
----------------------------------------------------------------------------|
----------------------------------------------------------------------------|
-------------------------------3-3-3-3--------------------------------------|
---3-3-3-3---5-5-5-5--6-6-6-6-----------6-6-6-6---5-5-5-5-------------------|
----------------------------------------------------------------------------|

----------------------------------------------------------------------------|
----------------------------------------------------------------------------|
----------------------------------------------------------------------------|
-------------------------------5-5-5-5--------------------------------------|
---5-5-5-5---6-6-6-6--8-8-8-8-----------8-8-8-8---6-6-6-6--5-5-5-5----------|
----------------------------------------------------------------------------|

----------------------------------------------------------------------------|
----------------------------------------------------------------------------|
----------------------------------------------------------------------------|
-------------------------------3-3-3-3--------------------------------------|
---3-3-3-3---5-5-5-5--6-6-6-6-----------6-6-6-6---5-5-5-5-------------------|
----------------------------------------------------------------------------|

----------------------------------------------------------------------------|
----------------------------------------------------------------------------|
----------------------------------------------------------------------------|
-------------------------------5-5-5-5--------------------------------------|
---5-5-5-5---6-6-6-6--8-8-8-8-----------8-8-8-8---6-6-6-6-------------------|
----------------------------------------------------------------------------|

----------------------------------------------------------------------------|
----------------------------------------------------------------------------|
----------------------------------------------------------------------------|
-------------------------------3-3-3-3--------------------------------------|
---3-3-3-3---5-5-5-5--6-6-6-6-----------6-6-6-6---5-5-5-5-------------------|
----------------------------------------------------------------------------|

----------------------------------------------------------------------------|
----------------------------------------------------------------------------|
----------------------------------------------------------------------------|
-------------------------------5--------------------------------------------|
---5-5-5-5---6-6-6-6--8-8-8-8----8-6-5--------------------------------------|
----------------------------------------------------------------------------|

A good fun riff 

"From Now On We Are Enemy's....You And I." -COBHC