Still Remains - Worst Is Yet To Come Chords & Tabs

 

Worst Is Yet To Come Chords & Tabs

Still Remains Chords & Tabs

Version: 1 Type: Bass Tab

Worst Is Yet To Come Bass Tab

Artist:	Still Remains
Title:	The Worst Is Yet To Come
Tuning: CGCF
Album: Of Love and Lunacy
Bassist: Evan Willey


intro
F------------------------------------------------------------------------------------------------------------|
C------------------------------------------------------------------------------------------------------------|
G--0-555-777-888--8-101010-888-777--7-777-888-101010-----101010-888-777--------------------------------------|
C--0--------------8-----------------7------------------------------------------------------------------------|


verse
F-----------------------------------------------------------------------------------------------------------|
C-----------------------------------------------------------------------------------------------------------|
G--0-555-777-888--8-101010-888-777--7-777-888-101010--10-----101010-888-------------------------------------|
C--0--------------8-----------------7-----------------10----------------------------------------------------|

play this and then repeat the intro and alternate


verse part 2
F---------------------------------------------------------------------------------------------------|
C---------------------------------------------------------------------------------------------------|
G---------------------------------------------------------------------------------------------------|
C--000-000-0---0--000-0---3-2--3-5----000-000-0---0--000-0---3-2--2-0-------------------------------|

the first time this riff is played, end abruptly on a palm-muted C


pre-chorus
F----------------------------------------------------------------------------------------------------|
C----------------------------------------------------------------------------------------------------|
G--55555555-55555555-33333333-5555-77--8-8-----------------------------------------------------------|
C----------------------------------------------------------------------------------------------------|


chorus
F------------------------------------------------------------------------------|
C------------------------------------------------------------------------------|
G--55555555-55555555-33333333-33333333--8-8-8-8-8-8-8-8--8-8-8-8-8-8-8-8-------|
C------------------------------------------------------------------------------|
[ Tab from: http://www.guitartabs.cc/tabs/s/still_remains/worst_is_yet_to_come_btab.html ]
F---------------------------------------------------------------------------------------------------|
C---------------------------------------------------------------------------------------------------|
G--1010101010101010-1010101010101010----------------------------------------------------------------|
C---------------------------------------------------------------------------------------------------|


interlude
F------------------------------------------------------------------------------|-------------|
C------------------------------------------------------------------------------|-------------|
G--5----/12--10---8--3----/7---8--10---8----/12--10---8--8--7------------------|--<7>b-------|
C----------------------------------------------------------------------8--7----|-------------|
                                                                 play this on
                                                                 the last time


second pre-chorus
F-----------------------------------------------------------------------------------------------------------------|
C-----------------------------------------------------------------------------------------------------------------|
G--55555555-55555555-33333333-33333333-55555555-55555555-1515151515151515-----------------------------------------|
C-----------------------------------------------------------------------------------------------------------------|


F------------------------------------------------------------------------------|
C------------------------------------------------------------------------------|
G--1313131313131313------------------------------------------------------------|
C------------------------------------------------------------------------------|


break
F------------------------------------------------------------------------------|
C--8p0-000-7p0-000-0-7p0-0-8p0-0-7p0--8p0-000-7p0-000-0-7p0-0-10p0-0-8p0-------|
G------------------------------------------------------------------------------|
C------------------------------------------------------------------------------|

F-----------------------------------------------------------------------------------|
C-----------------------------------------------------------------------------------|
G-----------------------------------------------------------------------------------|
C--7--5--3--2--0---0---0------------------------------------------------------------|

end the last time on this


ending
F---------------------------------------------------------------------------------|-----------------------|
C---------------------------------------------------------------------------------|-----------------------|
G---------------------------------------------------------------------------------|-----------------------|
C--0-0--10-10--8-8--1010101010101010-111111111111111------------------------------|--000-000-0------------|