Still Remains - White Walls Chords & Tabs

 

White Walls Chords & Tabs

Still Remains Chords & Tabs

Version: 1 Type: Tab 0 ratings
1 star 2 stars 3 stars 4 stars 5 stars
comments

White Walls Tab

Still Remains - White Walls Intro

Drop C (CGCFAD)

D|-----------------------------------------------------------|
A|-10-10-10-10-8---------------8-----------------------------|
F|---------------10-9-9-9-9-10------10-9-7-----10-9-7--------|
C|-------------------------------10--------10---------10-8-7-|
G|-----------------------------------------------------------|
C|-----------------------------------------------------------|
[ Tab from: http://www.guitartabs.cc/tabs/s/still_remains/white_walls_tab.html ]
D|--------------------------------------------------------------------------|
A|-10-10-10-10-8---------------8------------------------12------------------|
F|---------------10-9-9-9-9-10---------9----10----12----------12----10-9----|
C|-------------------------------10-10---10----10----10----10----10------10-|
G|--------------------------------------------------------------------------|
C|--------------------------------------------------------------------------|

All of this ^ X 2

It may not be right but it works for me

this is only my second tab so go easy on me, if you have any problems with it email me 
random_meh_oof@hotmail.com
Comments