Still Remains - The Worst Is Yet To Come Chords & Tabs

 

The Worst Is Yet To Come Chords & Tabs

Still Remains Chords & Tabs

Version: 1 Type: Tab 0 ratings
1 star 2 stars 3 stars 4 stars 5 stars
comments

The Worst Is Yet To Come Tab

Tuning - Drop C (low to high CGCFAD)


intro
----------------------------------------------------------------------------|
----------------------------------------------------------------------------|
----------------------------------------------------------------------------|
--0--------------8-----------------7----------------777---------------------|
--0-555-777-888--8-101010-888-777--7-777-888-101010-----101010-888-777------|
--0--------------8-----------------7----------------------------------------|


verse
----------------------------------------------------------------------------|
----------------------------------------------------------------------------|
----------------------------------------------------------------------------|
--0--------------8-----------------7-----------------10-777-----------------|
--0-555-777-888--8-101010-888-777--7-777-888-101010--10-----101010-888------|
--0--------------8-----------------7-----------------10---------------------|

play this and then repeat the intro and alternate


verse part 2
----------------------------------------------------------------------------|
----------------------------------------------------------------------------|
----------------------------------------------------------------------------|
--000-000-0---0--000-0---3-2--3-5----000-000-0---0--000-0---3-2--2-0--------|
--000-000-0---0--000-0---3-2--3-5----000-000-0---0--000-0---3-2--2-0--------|
--000-000-0---0--000-0---3-2--3-5----000-000-0---0--000-0---3-2--2-0--------|

the first time this riff is played, end abruptly on a palm-muted C


pre-chorus
----------------------------------------------------------------------------|
----------------------------------------------------------------------------|
--77777777-77777777-55555555-7777-99-1010-----------------------------------|
--xxxxxxxx-xxxxxxxx-xxxxxxxx-xxxx-xx--x-x-----------------------------------|
--55555555-55555555-33333333-5555-77--8-8-----------------------------------|
----------------------------------------------------------------------------|


chorus
----------------------------------------------------------------------------|
----------------------------------------------------------------------------|
--77777777-77777777-55555555-55555555-1010101010101010-1010101010101010-----|
--xxxxxxxx-xxxxxxxx-xxxxxxxx-xxxxxxxx--x-x-x-x-x-x-x-x--x-x-x-x-x-x-x-x-----|
--55555555-55555555-33333333-33333333--8-8-8-8-8-8-8-8--8-8-8-8-8-8-8-8-----|
----------------------------------------------------------------------------|

----------------------------------------------------------------------------|
----------------------------------------------------------------------------|
--1212121212121212-1212121212121212-----------------------------------------|
---x-x-x-x-x-x-x-x--x-x-x-x-x-x-x-x-----------------------------------------|
--1010101010101010-1010101010101010-----------------------------------------|
----------------------------------------------------------------------------|

[ Tab from: http://www.guitartabs.cc/tabs/s/still_remains/the_worst_is_yet_to_come_tab.html ]
interlude
----------------------------------------------------------------|-----------|
----------------------------------------------------------------|-----------|
--7----/14--12--10--5----/9--10--12--10----/14--12--10----------|-----------|
--x------x---x---x--x-----x---x---x---x------x---x---x--8--7----|-----------|
--5----/12--10---8--3----/7---8--10---8----/12--10---8--8--7----|--<7>b-----|
--------------------------------------------------------8--7----|-----------|
                                                                 play this on
                                                                 the last time


second pre-chorus
----------------------------------------------------------------------------|
----------------------------------------------------------------------------|
--77777777-77777777-55555555-55555555-77777777-77777777-1717171717171717----|
--xxxxxxxx-xxxxxxxx-xxxxxxxx-xxxxxxxx-xxxxxxxx-xxxxxxxx--x-x-x-x-x-x-x-x----|
--55555555-55555555-33333333-33333333-55555555-55555555-1515151515151515----|
----------------------------------------------------------------------------|

----------------------------------------------------------------------------|
----------------------------------------------------------------------------|
--1515151515151515----------------------------------------------------------|
---x-x-x-x-x-x-x-x----------------------------------------------------------|
--1313131313131313----------------------------------------------------------|
----------------------------------------------------------------------------|


break
----------------------------------------------------------------------------|
----------------------------------------------------------------------------|
----------------------------------------------------------------------------|
--8p0-000-7p0-000-0-7p0-0-8p0-0-7p0--8p0-000-7p0-000-0-7p0-0-10p0-0-8p0-----|
----------------------------------------------------------------------------|
----------------------------------------------------------------------------|

----------------------------------------------------------------------------|
----------------------------------------------------------------------------|
----------------------------------------------------------------------------|
--7--5--3--2--0---0---0-----------------------------------------------------|
--7--5--3--2--0---0---0-----------------------------------------------------|
--7--5--3--2--0---0---0-----------------------------------------------------|

end the last time on this


ending
-------------------------------------------------------|--------------------|
-------------------------------------------------------|--------------------|
-------------------------------------------------------|--------------------|
--0-0--10-10--8-8--1010101010101010-111111111111111----|--000-000-0---------|
--0-0--10-10--8-8--1010101010101010-111111111111111----|--000-000-0---------|
--0-0--10-10--8-8--1010101010101010-111111111111111----|--000-000-0---------|
                                                       end on this
Comments