Stigmatic - School Chords & Tabs

 

School Chords & Tabs

Stigmatic Chords & Tabs

Version: 1 Type: Bass Tab 0 ratings
1 star 2 stars 3 stars 4 stars 5 stars
comments

School Bass Tab

Intro
G--------------------------------------------------
D--------------------------------------------------
A---5-5-5-5-5--------------------------------------
E-------------5-5-5-5-5--7-7-7-7-7--3-3-3-3-3------


G--------------------------------------------------
D--------------------------------------------------
A-----5*-------------------------------------------
E----------5*---7*--3--3-3-3-----------------------
[ Tab from: http://www.guitartabs.cc/tabs/s/stigmatic/school_btab.html ]
Chorus repeat 3x
G--------------------------------------------------
D--------------------------------------------------
A---2-2-2-2-2--3-3-3-3-3--5-5-5-5-5----------------
E-----------------------------------3-3-3-3-3------

1X
G--------------------------------------------------
D--------------------------------------------------
A---5-5-5-5-5--2-2-2-2-2---3-3-3-3-3---------------
E------------------------------------3-3-3-3-3-----

G--------------------------------------------------
D--------------------------------------------------
AŚ--5-5-5-5-5--2-2-2-2-2---3-3-3-3-3---------------
E--------------------------------------------------

REPEAT SONG
Comments