Stigma - Nothing Left Chords & Tabs

 

Nothing Left Chords & Tabs

Stigma Chords & Tabs

Version: 1 Type: Tab 0 ratings
1 star 2 stars 3 stars 4 stars 5 stars
comments

Nothing Left Tab

   
STIGMA - 'Nothing Left'
 
Music by Lyle Christine/Johnny Durst/Greig Bald.
Words by Lyle Christine.
 
Split single released with Deadenstereo Feb 2004.

Tune a half step down.

Main Riff: Clean guitar with slow flanger. Let notes ringout and repeat where necessary.
[ Tab from: http://www.guitartabs.cc/tabs/s/stigma/nothing_left_tab.html ]
E-------------------------------------------------------------------------------------------------------
B-------------------3------------3-----------------0---------------0-----------0-------------0----------
G-------------0------------------------0---------------------0----------------------0-------------------
D-------5------------------5-----------------5---------3-----------------3---------------3--------------
A-------------------------------------------------------------------------------------------------------
E-------------------------------------------------------------------------------------------------------

E--------------------------------3----------------------------------------------------------------------
B--------------------3----------------------0----------------------1-----1-----0------------------------
G-------------0-----------------------------------------------0--------------------0--------------------
D------2--------------------2----------2----------0-----1-------------------------------1----0----------
A-------------------------------------------------------------------------------------------------------
E-------------------------------------------------------------------------------------------------------



Chorus Chords

Em  F#/D    G    F#D    Em    D




©2004  Stigma
All rights reserved

                                           
Comments