Stiff Little Fingers - State Of Emergency Chords & Tabs

 

State Of Emergency Chords & Tabs

Stiff Little Fingers Chords & Tabs

Version: 1 Type: Tab 0 ratings
1 star 2 stars 3 stars 4 stars 5 stars
comments

State Of Emergency Tab

Intro
Riff 1
E|-------------------------------------------------------------------------|
B|-------------------------------------------------------------------------|
G|---7--------------9-5--------------------7---------------9-5-------------|
D|-7-7--------------9-5-5-7--------------7-7---------------9-5-5-77777777--|
A|-7-5-5p0h5p0h5p0--7-3-5-7--------------7-5-h5p0h5p0h5p0--7-3-5-77777777--|
E|-5--------------------3-5-h5p0h5p0h5p0-5---------------------3-55555555--|

Verse
E|-----------------------------------|
B|-----------------------------------|
G|--7777777--9--5--------------------|
D|--7777777--9--5--5--77777777-------|2X
A|--5555555--7--3--5--77777777-------|
E|-----------------3--55555555-------|

Verse 2
E|-----------------------------------|
B|-----------------------------------|
G|-----------------------------------|
D|--55555555555---777777777----------|4X
A|--55555555555---777777777----------|
E|--33333333333---555555555----------|

Chorus
E|---------------------------------------------------------|
B|---------------------------------------------------------|
G|----------999999----------999999----------99999-99-99-99-|
D|----------999999----------999999----------99999-99-99-99-|
A|-------5--777777-------5--777777-------5--77777-77-77-77-|
E|--5--7------------5--7------------5--7-------------------|

Riff 1
E|-------------------------------------------------------------------------|
B|-------------------------------------------------------------------------|
G|---7--------------9-5--------------------7---------------9-5-------------|
D|-7-7--------------9-5-5-7--------------7-7---------------9-5-5-77777777--|
A|-7-5-5p0h5p0h5p0--7-3-5-7--------------7-5-h5p0h5p0h5p0--7-3-5-77777777--|
E|-5--------------------3-5-h5p0h5p0h5p0-5---------------------3-55555555--|

Verse
E|-----------------------------------|
B|-----------------------------------|
G|--7777777--9--5--------------------|
D|--7777777--9--5--5--77777777-------|2X
A|--5555555--7--3--5--77777777-------|
E|-----------------3--55555555-------|

Verse 2
E|-----------------------------------|
B|-----------------------------------|
G|-----------------------------------|
D|--55555555555---777777777----------|4X
A|--55555555555---777777777----------|
E|--33333333333---555555555----------|
[ Tab from: http://www.guitartabs.cc/tabs/s/stiff_little_fingers/state_of_emergency_tab.html ]
Chorus
E|---------------------------------------------------------|
B|---------------------------------------------------------|
G|----------999999----------999999----------99999-99-99-99-|
D|----------999999----------999999----------99999-99-99-99-|
A|-------5--777777-------5--777777-------5--77777-77-77-77-|
E|--5--7------------5--7------------5--7-------------------|

Riff 1
E|-------------------------------------------------------------------------|
B|-------------------------------------------------------------------------|
G|---7--------------9-5--------------------7---------------9-5-------------|
D|-7-7--------------9-5-5-7--------------7-7---------------9-5-5-77777777--|
A|-7-5-5p0h5p0h5p0--7-3-5-7--------------7-5-h5p0h5p0h5p0--7-3-5-77777777--|
E|-5--------------------3-5-h5p0h5p0h5p0-5---------------------3-55555555--|

Bridge 1
E|--------------------------------------------------|
B|--------------------------------------------------|
G|--44444--66666--77777--99999999--9--9--9-999-9999-|
D|--44444--66666--77777--99999999--9--9--9-999-9999-|
A|--22222--44444--55555--77777777--7--7--7-777-7777-|
E|--------------------------------------------------|

Bridge 2
E|----------------------------------------|
B|----------------------------------------|
G|----------------99999999999-------------|
D|--55555555555---99999999999--55555------|
A|--55555555555---77777777777--55555------|
E|--33333333333----------------33333------|

End Solo
E|-------------------------------------------------------------------------|
B|-------------------------------------------------------------------------|
G|-------------------------------------------------------------------------|
D|-------------------------------------------------------------------------|
A|-5h7-777777-5h7-777777-5h7-77777-----5-5h7-777777-5h7-777777-5h7-77777---|
E|---------------------------------5-7-------------------------------------|

E|-------------------------------------------------------------------------|
B|-------------------------------------------------------------------------|
G|----------------------------------------------------------------9--------|
D|----------------------------------------------------------------9--------|
A|------5-5h7-777777-5h7-777777-5h7-77777-----5-7-----5-7-----5-7-7--------|
E|--5-7-----------------------------------5-7-----5-7-----5-7--------------|



TAB BY PAULO MARASCA FILHO
Comments