Stiff Little Fingers - Hurricane Chords & Tabs

 

Hurricane Chords & Tabs

Stiff Little Fingers Chords & Tabs

Version: 1 Type: Bass Tab 0 ratings
1 star 2 stars 3 stars 4 stars 5 stars
comments

Hurricane Bass Tab

BASS TAB

Artist : Stiff Little Fingers
Album : Tinderbox
Bassist : Bruce Foxton
Song : Hurricane
Tempo :152 bpm
Use a pick
S = Slide
Tab by : user@ johnrosk.softnet.co.uk
bars         1                         2
   drum intro
G|---------------------]-----------------------|
D|---------------------]-----------------------|
A|---------------------]-----------------------|
E|---------------------]----------------15-S-|
 
bars          3          to          32                                    
                                       
Gl---------------------]-----------------------|
D|----------------2-3-]----------------2-3---|
A|------5-5-4-4------]------5-5-4-4--------|
E|-3-3----------------]-3-3------------------|

Chorus

bars      33                         34
G|---------------------]-----------------------|
D|------4-4-7-7-4-4-]------4-4-7-7-4-4---|
A|-5-5----------------]-5-5------------------|
E|---------------------]-----------------------|

bars       35                       36
G|---------------------]-----------------------|
D|------2-2-5-5-2-2-]------2-2-3-3-5-5---l                                 
  A|-3-3----------------]-3-3------------------|
E|---------------------]-----------------------|
[ Tab from: http://www.guitartabs.cc/tabs/s/stiff_little_fingers/hurricane_btab.html ]
bars       37                      38
G|---------------------]-----------------------|
D|---------------------]-----------------------|
A|------2-2-5-5-2-2-]------2-2-5-5-2-2---|
E|-3-3----------------]-3-3------------------|

bars        39                     40
G|---------------------]-----------------------|
D|------4-4-7-7-4-4-]------4-4-7-7-4-4---|
A|-5-5----------------]-5-5------------------|
E|---------------------]-----------------------|

Repeat bars 33 to 40 

bars     49                50 to 52 drum fill      
G|---------------------]-----------------------|
D|---------------------]-----------------------|
A|---------------------]-----------------------|
E|-15-S------------0-]-----------------------|

Repeat bar 2 then bar 3 20 times. then repeat
chorus this gives you bars 53 to 88

BRIDGE

bars      89            to         96
G|---------------------]-----------------------|
D|---------------------]-6--------------------|
A|-6-8--8--6-8-------]----8--6--6-8-------|
E|---------------------]-----------------------|

bars        97              98  drum fill
G|---------------------]-----------------------|
D|---------------------]-----------------------|
A|---------------------]-----------------------|
E|-15-S------------0-]-----------------------|

bars   99                          100
G|---------------------]-----------------------|
D|---------------------]-----------------------|
A|---------------------]----------------17-S-|
E|---------------------]-----------------------|


Repeat chorus untill fade out


Please note Bar 36 is played twice as bar 35 in fade out. The second & fith
repeat.




Comments