Stiff Little Fingers - Gotta Get Away Chords & Tabs

 

Gotta Get Away Chords & Tabs

Stiff Little Fingers Chords & Tabs

Version: 1 Type: Tab 0 ratings
1 star 2 stars 3 stars 4 stars 5 stars
comments

Gotta Get Away Tab

   
#----------------------------------PLEASE NOTE---------------------------------#
#This file is the author's own work and represents their interpretation of the #
#song. You may only use this file for private study, scholarship, or research. #
#------------------------------------------------------------------------------##
From: u01jer@aberdeen.ac.uk
Date: Wed, 31 May 1995 12:43:43 +0100 (BST)

Band: Stiff Little Fingers
Song: Gotta Gettaway


Modified tab/chords from G. Johnston 
Modified by Jake Riddoch (u01jer@abdn.ac.uk)

Gotta Gettaway - Stiff Little Fingers
-------------------------------------

Intro
-----
      Play x3
||--3-x-x-3-x-x-2-x-2-x-0-x---------||-3----------------------------|
||o-3-x-x-3-x-x-3-x-3-x-0-x-3------o||-3----------------------------|
||--------------------------2-------||-0----------------------------|
||o--------------------------------o||-0------------X\--------------|
||----------------------------------||-2------------X\--------------|
||----------------------------------||-3----------------------------|
Pick slide
Play x3-----------------------|
G       G   D | D   Em  D     | G
1   2   3   4 | 1   2   3   4 | 1   2   3   4


Intro Riff (bass arr. for gtr)
------------------------------
            G                Em                   D
E !-------------------!------------------!-------------------!
B !-------------------!------------------!-------------------!
G !-------0-0-0-0-h-2-!-------0----------!-------------------!
D !-0-h-2-------------!-2-2-2---2--------!-0-0-0-------0-0-0-!
A !-------------------!------------------!-------0-h-2-------!
E !-------------------!------------------!-------------------!

            G                Em                   D
E !-------------------!------------------!-------------------!
B !-------------------!------------------!-------------------!
G !-------0-0-0-0-h-2-!-------0----------!-------------------!
D !-0-h-2-------------!-2-2-2---2--------!-0-0-0-------0-0-0-!
A !-------------------!------------------!-------0-h-2-------!
E !-------------------!------------------!-------------------!
[ Tab from: http://www.guitartabs.cc/tabs/s/stiff_little_fingers/gotta_get_away_tab.html ]
{While playing riff sing 'gotta, gotta, gettaway'}


More Intro Chords
-----------------

G D C G (x4)

Verse 1
-------
Chorus
------
       Play x3
||--3-x-x-3-x-x-2-x-2-x-0-x---------||----------------------------------|
||o-3-x-x-3-x-x-3-x-3-x-0-x-3------o||-3-3-3-3-3-3-3-3-3----------------|
||--------------------------2-------||-2-2-2-2-2-2-2-2-2----------------|
||o--------------------------------o||-0-0-0-0-0-0-0-0-0----------------|
||----------------------------------||----------------------------------|
||----------------------------------||----------------------------------|
{Play the 'more intro chords part}

Verse 2 (Same chords as verse 1)
--------------------------------

{Repeat chorus}
{Fade out with intro riff and singing 'gotta, gotta, gettaway' as many
 times as you like}

Outro gtr riff
|--------------------|----------------------------------|
|--------------------|-----------------12----12-15-p-12-|
|-12-----12----------|--------------14----14------------|
|-----12----14----14-|-12b14r12-------------------------|
|--------------14----|----------------------------------|
|--------------------|----------------------------------|


Originally tabbed by :   Gordon Johnston
Internet address :       328gj@alph1.dev.esoc.esa.de


**********************************************************************************************************

Stiff Little Fingers -- 'Suspect Device'
by Stiff Little Fingers

INTRO RIFF:
-------------------------------------------------------------|
-------------------------------------------------------------|
--------9-9-9-9---9-9-9--9--9-9------------------------------|
--------9-9-9-9---9-9-9--9--9-9------------------------------|
--------7-7-7-7---7-7-7--7--7-7------------------------------|
--7--9-------------------------------------------------------|
(repeats)

[*]the publicly released version says '...sod all' here.


------------------------------------------------------------
mark schnitzius           |  seeking guitar songbook for the
schnitzi@eola.cs.ucf.edu  |  clash's "london calling".  does
univ. of central florida  |  one even exist?  will pay top $
------------------------------------------------------------
Comments