Stiff Little Fingers - Each Dollar A Bullet Chords & Tabs

 

Each Dollar A Bullet Chords & Tabs

Stiff Little Fingers Chords & Tabs

Version: 2 Type: Tab

Each Dollar A Bullet Tab

The other tab for this solo on this site is way off from what I think it is...so here's 
(in my opinion) more correct version.
I will probably be of no help if you have problems with this tab since I'm not too 
when it comes to tablature, I just know the basics.
You can listen to the song to figure out the timing, the notes are essentially right though.

e|-------------------------------------------------------------------------|
B|13-13-15-13h15h13-------------------13-13-15-13h15h13----13--------------|
G|------------------15-12-----12-15---------------------15-----------------|
D|------------------------15b16--------------------------------------------|
A|-------------------------------------------------------------------------|
E|-------------------------------------------------------------------------|

e|--------------------------------------------------------------------------|
B|----------13--------------------------------13h15h13-13-------------------|
G|-15-15b17----15-12----12--------------------------------15----------------|
D|-------------------15----15b16-13----13--------------------13h15h13----13-|
A|----------------------------------15----15--------------------------15----|
E|--------------------------------------------------------------------------|
[ Tab from: http://www.guitartabs.cc/tabs/s/stiff_little_fingers/each_dollar_a_bullet_tab_ver_2.html ]
e|-----------------------------8-10b12-------------------------------------|
B|-------------------------------------------------------------------------|
G|-10b11-10-10b12-8------10-10----------10b11-10-10b12-8----8-10-10--------|
D|------------------10-8---------------------------------10----------------|
A|-------------------------------------------------------------------------|
E|-------------------------------------------------------------------------|

e|-13-13-10-10--------------------------------------------------------------|
B|-------------13-13-11-11--------------------------------------------------|
G|-------------------------12-12-10-10--------------------------------------|
D|-------------------------------------13-13-10-10--------13-15b16-15-13-15-|
A|---------------------------------------------------13-15------------------|
E|--------------------------------------------------------------------------|

e|-------------------------------------------------------------------------|
B|-------------------------------------------------------------------------|
G|------12-13-12h13h12-----------------------------------------------------|
D|---15---------------15-13----------12-13-12h13h12----15------------------|
A|--------------------------15-13-15----------------13-13------------------|
E|-------------------------------------------------------------------------|

and that's it!