Stiff Little Fingers - Each Dollar A Bullet Chords & Tabs

 

Each Dollar A Bullet Chords & Tabs

Stiff Little Fingers Chords & Tabs

Version: 1 Type: Tab 0 ratings
1 star 2 stars 3 stars 4 stars 5 stars
comments

Each Dollar A Bullet Tab

   
Stiff little fingers
"Each dollar a bullet" from flags and emblems (1991)

Good lyrics, good voice, good music, great band...

I try to learn guitar on my own and I'm a bit lazy, so it can be inaccurate : you can 
some notes if it's sound better
Listen to the song in order to find the tempo
Comments?   Serge.charny@tiscali.fr

Intro :
     Oh it must be so romantic....
E--------------------------------------------------|
B--------------4---------4------3------------3-----|
G----------------5--------5--3---3-----------------|
D------------5----3h5------5--3----1h3-----3-------|
A----------3-----------3-----------------1---------|
E---3---6------------------------------------------|

E-------------------------------------------------------------|
B---------------------------8------------6--------------------|
G-----5---------5---------------------------------------------|
D---3--3---- -3----3----8-----8------------8------------------|
A-3------3-3---------6---------6-----8-------8-----3(etc.) ---|
E----------------------------------6--------------------------|


....each dollars a bullet....

      Gm                F

E---------3-----------------------1-------------|
B-----------------------------------------------|
G-----------3-----------3-----------2-----------|
D-------------3------3----3-----------3---------|
A-----5-----------3----------3------------------|
E---3-------------------------------------------|

Then...  (It's the same for the verses:
But you've to change the chords)

        C
E------------------------------------------------|
B------------------------------------------------|
G----5--5----3--5---3----3-5--3-----5------------|
D----5--5----3--5------5----------3--------------|
A------------------------------------------------|
E------------------------------------------------|

Chords :   Cm  A#  F  D#  A#

Solo :
E------------------------------------------------------|
B--13-1513h15--13-------------------------------------|
G--------------------------15--12--------12--15--------|
D------------------------------------15b---------------|
A------------------------------------------------------|
E------------------------------------------------------|
[ Tab from: http://www.guitartabs.cc/tabs/s/stiff_little_fingers/each_dollar_a_bullet_tab.html ]
E-------------------------------------------------------|
B--13--1513h15--13-------13----------------------------|
G----------------------------15-------------------------|
D-------------------------------------------------------|
A-------------------------------------------------------|
E-------------------------------------------------------|

e----------------------------------------------------------------|
B---------13-----------------------------------------------------|
G---15b--------15b-12-----12-12----------------------------------|
D----------------------15-----------15--13--------13-------------|
A-----------------------------------------------15-----15--------|
E----------------------------------------------------------------|

----------------------------------------------------|
-13h15h13-------------------------------------------|
--------------12h15h12------------------------------|
--------------------------13h15h13s10s13------------|
----------------------------------------------------|
----------------------------------------------------|

E----------------------------------------------------------|
B--------------8-------------------------------------------|
G------8-10b---10b-8--------------(then)-8-10--------------|
D--10-------------------10-(twice)-------------------------|
A----------------------------------------------------------|
E----------------------------------------------------------|


13--10----------------------------------------------------------------|
----------13-11-------------------------------------------------------|
-------------------12--10-----------------------10b-----10------------|
----------------------------13--10-----10h13-------13-----------------|
-----------------------------------13---------------------------------|
e---------------------------------------------------------------------|

e---------------------------------------|
b---------------------------------------|
g-------10s12--13-12h13h12s10-----------|
d---13----------------------------------|
a---------------------------------------|
e---------------------------------------|


E----------------------------------------------------------|
B----------------------------------------------------------|
G------------------------------------------10--------------|
D-13-10----10s12-13-12h13h12-------------------------------|
A-------13--------------------------13---------------------|
E----------------------------------------------------------|

See you at the Slf's forum...
Sorry for language's faults
Comments