Stiff Little Fingers - Alternative Ulster Chords & Tabs

 

Alternative Ulster Chords & Tabs

Stiff Little Fingers Chords & Tabs

Version: 5 Type: Tab 0 ratings
1 star 2 stars 3 stars 4 stars 5 stars
comments

Alternative Ulster Tab

Stiff Little Fingers -Alternative Ulster
Album -Inflammable Material                    Key - R ring
Tabbed by Chris -Standard Tuning                     /-slide
                                                     x-muffled string
Intro
|------------------------------------------------------------|
|--2---------------------------------------------------------|
|--2---2--11-11-11-9-4--4--11-11-11-9-12--12--11-11-11-9-4---|
|--0---0--0--0--0--0-0--0--0--0--0--0-0---0---0--0--0--0-0---|
|------------------------------------------------------------|
|--R----/------------R----/------------R----/------------R---|

|--------------------------------|
|--------------------------------|
|--4--11-11-11-9-12--12-12--11---|
|--0--0--0--0--0-0---0--0----0---|
|--------------------------------|
|---/------------R----------R----|

Verse-
This is played on its own first by Jake
|--2-2--0-0--2-2--3-3-3--|
|--3-3--2-2--3-3--0-0-0--|
|--2-2--2-2--4-4--0-0-0--|
|--0-0--2-2--4-4--0-0-0--|
|-------0-0--2-2--2-2-2--|
|-----------------3-3-3--|
then both guitars play,2nd guitar plays the above
|--5-x-------2-x----------|
|--7-x--5-x--3-x--3-3-3---|
|--7-x--6-x--4-x--4-4-4---|
|--7-x--7-x--4-x--5-5-5---|
|--5-x--7-x--2-x--5-5-5---|
|-------5-x-------3-3-3---|

Pre-Chorus
|-<--------REPEAT!!!------------>---------------|
|--5-5-5-5-5-5-5-5--3-3-3-3-3-3-3--5-5-5-5-5-5--|
|--6-6-6-6-6-6-6-6--4-4-4-4-4-4-4--6-6-6-6-6-6--|
|--7-7-7-7-7-7-7-7--5-5-5-5-5-5-5--7-7-7-7-7-7--|
|--7-7-7-7-7-7-7-7--5-5-5-5-5-5-5--7-7-7-7-7-7--|
|--5-5-5-5-5-5-5-5--3-3-3-3-3-3-3--5-5-5-5-5-5--|
[ Tab from: http://www.guitartabs.cc/tabs/s/stiff_little_fingers/alternative_ulster_tab_ver_5.html ]
Chorus
|--5-5-5--3-------------------3-3-3-3-3-3-3-3-------------------3-3-3-3-3-3-3-3--|
|--7-7-7--5--3-3-3-3-3-3-3-3--5-5-5-5-5-5-5-5--3-3-3-3-3-3-3-3--5-5-5-5-5-5-5-5--|
|--7-7-7--5--4-4-4-4-4-4-4-4--5-5-5-5-5-5-5-5--4-4-4-4-4-4-4-4--5-5-5-5-5-5-5-5--|
|--7-7-7--5--5-5-5-5-5-5-5-5--5-5-5-5-5-5-5-5--5-5-5-5-5-5-5-5--5-5-5-5-5-5-5-5--|
|--5-5-5--3--5-5-5-5-5-5-5-5--3-3-3-3-3-3-3-3--5-5-5-5-5-5-5-5--3-3-3-3-3-3-3-3--|
|------------3-3-3-3-3-3-3-3-------------------3-3-3-3-3-3-3-3-------------------|
 <----------------REPEAT-------------------->
|--5-5-5-5-5-5-5-5-5-5-5-5-5---|
|--7-7-7-7-7-7-7-7-7-7-7-7-7---|
|--7-7-7-7-7-7-7-7-7-7-7-7-7---|
|--7-7-7-7-7-7-7-7-7-7-7-7-7---|
|--5-5-5-5-5-5-5-5-5-5-5-5-5---|
|------------------------------|

REPEAT THE VERSE,PRE-CHORUS AND CHORUS AGAIN.

Bridge-I Cant be bothered tabbing out the rhythm any more!
|---2-----------2--------3-----3-----5------|
|---3--5--3--5--3--5--3--5--3--5--3--5--5---|
|---4--6--4--6--4--6--4--5--4--5--4--5--6---|
|---4--7--5--7--4--7--5--5--5--5--5--5--7---|
|---2--7--5--7--2--7--5--3--5--3--5--3--7---|
|------5--3--5-----5--3-----3-----3-----5---|
 <--REPEAT--->

Solo
|-------------------------------------------------------------------------|
|-------------------------------------------------------------------------|
|--11-11-11-9-4--x-x--x-x--x-x--x-x--4-11-11-11-9-12--x-x--x-x--x-x--x-x--|
|--0--0--0--0-0--x-x--x-x--x-x--x-x--0-0--0--0--0--0--x-x--x-x--x-x--x-x--|
|-------------------------------------------------------------------------|
|-------------------------------------------------------------------------|

|------------------------------------------------------------------------------|
|------------------------------------------------------0--0--0--0--0--0--0--0--|
|--12-11-11-11-9-4-x-x--x-x--x-x--x-x--4-11-11-11-9-12-12-12-12-12-12-12-12-12-|
|--0--0--0--0--0-0-x-x--x-x--x-x--x-x--0-0--0--0--0-0--0--0--0--0--0--0--0--0--|
|------------------------------------------------------------------------------|
|------------------------------------------------------------------------------|

Outro Chorus
|--5--3-------/--/--/-/--/-/--/----|
|--7--5--3---2-3--2-3--2-3--2-3----|
|--7--5--4---3-4--3-4--3-4--3-4----|
|--7--5--5---4-5--4-5--4-5--4-5----|
|--5--3--5---4-5--4-5--4-5--4-5----|
|--------3---2-3--2-3--2-3--2-3----|

Outro
|---------------------|
|---------------------|
|--7-7-7-5---7-5---7--|
|--7-7-7-5-5-7-5-5-7--|
|--5-5-5-3-5-5-3-5-5--|
|----------3-----3----|
Comments