Stevie Wonder - Yester Me Yester You Chords & Tabs

 

Yester Me Yester You Chords & Tabs

Stevie Wonder Chords & Tabs

Version: 1 Type: Bass Tab 0 ratings
1 star 2 stars 3 stars 4 stars 5 stars
comments

Yester Me Yester You Bass Tab

   
Yester_Me,_Yester_You,_Yesterday.btab
Stevie Wonder
TablEdited by Poppamies
Tuning : E A D G 	Time Signature: 4/4

 tempo 100       Yester me        |       |       yester you       
|--------------------------------|--------------------------------|
|--------------------1-----------|----------------------------4---|
|----------------2-----------4---|----------------4---4-----------|
|--------------------------------|--------------------------------|

 |       |       yesterday...     |       |       |       |        
|--------------------------------|--------------------------------|
|--------------------------------|------------1---2---2-----------|
|----------------------------2---|--------------------------------|
|------------0---2---2-----------|----------------------------4---|

 |       |       |       |        What happened to...     |        
|--------------------------------|--------------------------------|
|--------------------------------|--------------------------------|
|2---2-------2---2-------3-------|4---------------4---4-----------|
|--------------------------------|----------------------------2---|

 |       |       |       |        |       |   the world we|knew... 
|--------------------------------|--------------------------------|
|--------------------------------|--------------------------------|
|--------------------------------|----------------------------2---|
|------------2-------4---0---2---|2---1---2-------2---4-----------|

 |       |       |       |        |       |       |       |        
|--------------------------------|--------------------------------|
|--------------------------------|--------------------------------|
|------------2-----------3-------|4---------------4---4-----------|
|----2---------------------------|------------4---------------2---|

 |       |       |       |        |       |       |       |        
|------------------------4-------|4-------4-------3-------0---1---|
|------------4---4---6-------6---|--------------------1-----------|
|--------------------------------|--------------------------------|
|--------------------------------|--------------------------------|

 |       |       Yester me        |       |       yester you       
|--------1-----------------------|--------------------------------|
|----1---------------------------|--------------------------------|
|------------------------3---4---|--------------------4-----------|
|------------4---4---4-----------|----------------4-----------2---|

 |       |       yesterday...     |       |       |       |        
|--------------------------------|--------------------------------|
|--------------------------------|------------1---2---2-----------|
|----------------------------2---|----------------------------1---|
|------------2---2-------4-------|--------------------------------|

 |       |       |       |        |       Where did it go...       
|--------------------------------|--------------------------------|
|--------------------------------|----------------------------4---|
|2-----------2---2-------3-------|4---------------4---4-----------|
|--------------------------------|------------4-------------------|

 |       |       |       |        |       that yester glow...      
|--------------------------------|--------------------------------|
|------------------------2---4---|--------------------------------|
|--------------------4-----------|----------------------------2---|
|----2---2-----------------------|2-----------2---2---2-----------|

 |       |       |       |        |       |       |       |        
|--------------------------------|--------------------------------|
|--------------------------------|--------------------------------|
|------------1---2---2---3-------|4---------------4---4-----------|
|----2---------------------------|------------4---------------2---|

 |       |       |       |        |       |       |       |        
|--------------------------------|--------------------------------|
|--------------------------------|--------------------------------|
|----------------------------1---|2-----------2---1---0-------0---|
|------------2---2-------4-------|--------------------------------|

 |       |       Yester me        |       |       yester you       
|--------------------------------|--------------------------------|
|--------------------------------|--------------------------------|
|------------------------3-------|4-------------------4-----------|
|4-----------4---4---------------|----------------4-----------2---|

 |       |       yesterday...     |       |       |       |        
|--------------------------------|--------------------------------|
|--------------------------------|------------1---2---------------|
|----------------------------2---|----------------------------2---|
|2-----------2---2---2-----------|--------------------------------|

 |       |       |       |        |       |       |       |        
|--------------------------------|--------------------------------|
|--------------------------------|--------------------------------|
|2-----------2---2-------3-------|4---------------4---4-----------|
|--------------------------------|------------4---------------2---|

 |       |       |       |        |       |       |       |        
|------------------------4-------|4-------4-------3-------0---1---|
|------------4---4---6-------6---|--------------------1-----------|
|--------------------------------|--------------------------------|
|--------------------------------|--------------------------------|

 |       |       |       |        |       |       |       |        
|--------1-----------------------|------------4-6---4-----4---6---|
|----1---------------------------|--------6-----------6-----------|
|------------------------2---3---|4-----4-------------------------|
|------------3---4---4-----------|--------------------------------|

 |       |       |       |        |       |       |       |        
|----------4---6---4-----4---6---|--------------------------------|
|--------6-----------6-----------|4-------------------------------|
|4-----4-------------------------|--------------------------------|
|--------------------------------|--------------------------------|

 |       |       |       |        |       |       |       |        
|--------------------------------|--------------------------------|
|4-------2-------1-------0-------|--------------------------------|
|--------------------------------|4---------------4---4-----------|
|--------------------------------|----------------------------2---|
[ Tab from: http://www.guitartabs.cc/tabs/s/stevie_wonder/yester_me_yester_you_btab.html ]
 |       |       |       |        |       |       |       |        
|--------------------------------|--------------------------------|
|--------------------------------|--------------------------------|
|----------------------------4---|----------------------------2---|
|----------------2---2---2-------|2-----------2---2---2-----------|

 |       |       |       |        |       |       |       |        
|--------------------------------|--------------------------------|
|--------------------------------|----------------------------4---|
|------------2---2-------3-------|4---------------4---4-----------|
|--------------------------------|--------------------------------|

 |       |       |       |        |       |       |       |        
|------------------------4-------|4-------4-------3-------0---1---|
|------------4---4---6-------6---|--------------------1-----------|
|--------------------------------|--------------------------------|
|--------------------------------|--------------------------------|

 |       |       |       |        |       |       |       |        
|--------------------------------|--------------------------------|
|--------------------------------|--------------------------------|
|----------------1---2-------4---|--------------------4-----------|
|----4---4---4-------------------|--------------4-4-----------2---|

 |       |       |       |        |       |       |       |        
|--------------------------------|--------------------------------|
|--------------------------------|----------------2---2-----------|
|----------------------------2---|----------------------------0---|
|------------2---2-------4-------|--------------------------------|

 |       |       |       |        |       |       |       |        
|--------------------------------|--------------------------------|
|--------------------------------|----------------------------4---|
|2-----------2---2-------3-------|4-------------------4-----------|
|--------------------------------|--------------------------------|

 |       |       |       |        |       |       |       |        
|------------------------4-------|4-----------4---3-----------1---|
|------------4---4---6-------6---|--------------------1-----------|
|--------------------------------|--------------------------------|
|--------------------------------|--------------------------------|

 |       |       |       |        |       |       |       |        
|--------------------------------|------------4-6---4-----4---6---|
|----1---------------------------|--------6-----------6-----------|
|--------------------2---3-------|4-----4-------------------------|
|--------3---4---4---------------|--------------------------------|

 |       |       |       |        |       |       |       |        
|----------4---6---4-----4---6---|--------------------------------|
|--------6-----------6-----------|4-------------------------------|
|4-----4-------------------------|--------------------------------|
|--------------------------------|--------------------------------|

 |       |       |       |        |       |       |       |        
|--------------------------------|--------------------------------|
|4-------2-------1-------0-------|--------------------------------|
|----------------------------3---|4---------------4---4-----------|
|--------------------------------|------------4---------------2---|

 |       |       |       |        |       |       |       |        
|--------------------------------|--------------------------------|
|--------------------------------|--------------------------------|
|--------------------------------|--------------------2-------2---|
|------------2-------2-3-4---0---|2-------2-------4---------------|

 |       |       |       |        |       |       |       |        
|--------------------------------|--------------------------------|
|--------------------------------|----------------------------4---|
|------------2---2-------3-------|4---------------4---4-----------|
|--------------------------------|--------------------------------|

 |       |       |       |        |       |       |       |        
|--------------------------------|--------4-------3-----------1---|
|------------------------4-------|--------------------1-----------|
|----4---------------4-------0---|2-------------------------------|
|--------2-----------------------|--------------------------------|

 |       |       |       |        |       |       |       |        
|------------1-------------------|--------------------------------|
|--------1-----2-----------------|----------------------------4---|
|----------------------------4---|--------------------4-----------|
|----------------4---4-----------|----------------4---------------|

 |       |       |       |        |       |       |       |        
|--------------------------------|--------------------------------|
|--------------------------------|------------1---2-------2-------|
|----4-----------------------2---|----------------------------0---|
|--------2-------2---4-----------|--------------------------------|

 |       |       |       |        |       |       |       |        
|--------------------------------|--------------------------------|
|--------------------------------|--------------------------------|
|2-----------2---2---3-------4---|------------4-------4-----------|
|--------------------------------|----------------4-----------2---|

 |       |       |       |        |       |       |       |        
|--------------------------------|--------------------------------|
|--------------------------------|------------1---2-------2-------|
|----------------------------2---|----------------------------0---|
|2-----------2---2---4-----------|--------------------------------|

 |       |       |       |        |       |       |       |        
|--------------------------------|--------------------------------|
|--------------------------------|--------------------------------|
|2-----------2---2---3-------4---|------------4-------4-----------|
|--------------------------------|----------------4-----------2---|

 |       |       |       |        |       |       |       |        
|--------------------------------|--------------------------------|
|--------------------------------|------------1---2---2-----------|
|----------------------------2---|--------2-------------------2---|
|----1---2-------2---4-----------|--------------------------------|

 |       |       |   fading...    
|--------------------------------|
|--------------------------------|
|------------2---2---------------|
|--------2-----------------------|


Created with TablEdit http://www.tabledit.com/
Comments