Stevie Wonder - Isnt She Lovely Chords & Tabs

 

Isnt She Lovely Chords & Tabs

Stevie Wonder Chords & Tabs

Version: 1 Type: Bass Tab 0 ratings
1 star 2 stars 3 stars 4 stars 5 stars
comments

Isnt She Lovely Bass Tab

   
Isn't she lovely - Stevie Wonder
Published by K.Scieranski (the greatest polish bass player)

This tab was made by ME (bewrong@poczta.onet.pl)

G and D are tapped with right hand
A and E are tapped with left hand

all notes on G and D are quarter notes


       
  ||  G|-17---17---17---17--|-17---17---17---17--|-17---17---16---16--|
4 || *D|-17---17---17---17--|-16---16---16---16--|-15---15---15---15--|
4 || *A|--------------------|-5-------5----------|-5------------------|
  ||  E|-5-------5----------|--------------------|---------3----------|
        q+e     h+e          q+e     h+e          q+e     h+e


      ------------------    ----------------------
      |1.              |    |2.                  |

      |-17---17--------|    |-17---17------------|
      |-14---14--------|*   |-14---14------------|
      |-3--------------|*   |-3-------3---5---7--|
      |---------0---3--|    |--------------------|
        h       q   q         h       |--3-h--|
             
                                         
[ Tab from: http://www.guitartabs.cc/tabs/s/stevie_wonder/isnt_she_lovely_btab.html ]
      |-14---14---14---14--|-13---13---13---13--|-17---17---17---17--|
      |-14---14---14---14--|-12---12---12---12--|-17---17---17---17--|
      |-8-------8----------|-7-------7----------|--------------------|
      |--------------------|--------------------|-5-------5----------|
       q+e     h+e          q+e     h+e          q+e     h+e



      |-17---17---17---17--|-17---17---17---17--|-17---17---16---16--|
      |-16---16---16---16--|-15---15---15---15--|-15---15---15---15--|
      |-5-------5----------|-5-------5----------|--------------------|
      |--------------------|--------------------|-3-------3----------|
       q+e     h+e          q+e     h+e          q+e     h+e



      |-17-----------------2-5-|-5---5--|
      |-14-------------2-5-----|--------|
      |-3----------3-5---------|--------|
      |------R-3-5-------------|--------|
             |-3-| |-3-| |-3-|
        q      q     q     q
            |---------------------------|
                  end isn't tapped



|----------------------------------------------------------------|
|if you have any f#@%&# questions mail to bewrong@poczta.onet.pl |
|----------------------------------------------------------------|
Comments