Stevie Ray Vaughan - Rude Mood Chords & Tabs

 

Rude Mood Chords & Tabs

Stevie Ray Vaughan Chords & Tabs

Version: 1 Type: Tab 0 ratings
1 star 2 stars 3 stars 4 stars 5 stars
comments

Rude Mood Tab

   
Attist-Stevie Ray Vaughan
Song-Rude Mood
Album Texas Flood
Tuning-Half Step Down          Eb Ab Db Gb Bb Eb
Tabber-crybaby575

it dosent look right on this website but
to corectly see this tab cut and paste 
this on microsoft word and put the font on 
couorier new 



------------------------------------------------------------------------------
------------------------------------------------------------------------------
----x---x---x----x---x----x---x---x-----x---x---x---x---x---x---x---x---------
----x---x---x----x---x-2--x---x---x-----x---x---x---x---x-2-x---x---x---------
----x---x---x--2-x-4-x----x---x-2-x-4---x---x---x-2-x-4-x---x---x-2-x-4-------
------0---3-----------------3-------------0---3---------------3---------------

 00:00


------------------------------------------------------------------------------
---X---x---x---x---x---x---x---x----------------------------------------------
---x---x---x---x---x-2-x---x---x-----x---x---x---x---x-----x---x---x----------
---x---x---x-2-x-4-x---x---x-2-x-4---x---x---x---x---x-2---x---x---x----------
-----0---3---------------3-----------x---x---x-2-x-4-x-----x---x-2-x-4--------
---------------------------------------0---3-----------------3----------------

------------------------------------------------------------------------------
------------------------------------------------------------------------------
----------------------------------2-------------------------------------------
----------------------------2p0---1-------------------------------------------
--x---0-1-2-0-----------2-4-----2---------------------------------------------
--2-4---------4-2-0--/4-------------------------------------------------------


-/12-12-12-12-12-12-12-12-12-12-12-12-12---9----------------------------------
---------------------------------------------12-9---------------------12------
---------------------------------------------------12-11-9----9-11b13---------
-----------------------------------------------------------11-----------------
------------------------------------------------------------------------------
------------------------------------------------------------------------------



 00:10
------------------------------------------------------------------------------
------------------------------------------------------------------------------
-------13r11p9------9-9------9-9------9-9-------------------------------------
---------------11-9-----11-9-----11-9-----11-9--------------------------------
-----------------------------------------------9\7-----7----------------------
---------------------------------------------------9-7---7\0------------------



--0-----------------------------2---------------------------------------------
------------------------------------------------------------------------------
----2/4-0-2p0-2p0-------------2-----3-----2--x---x---x---x----------2---------
------------------2-0-----1---------2-----1--x---x---x---x---3p0----1---------
----------------------2-2---x-----3---2-2----x---x-----2---4-----2------------
-----------------------------------------------0---3--------------------------



------------------------------------------------------------------------------
------------------------------------------------------------------------------
----x---x---x----x---x----x---x---x-----x---x---x---x---x---x---x---x---------
----x---x---x----x---x-2--x---x---x-----x---x---x---x---x-2-x---x---x---------
----x---x---x--2-x-4-x----x---x-2-x-4---x---x---x-2-x-4-x---x---x-2-x-4-------
------0---3-----------------3-------------0---3---------------3---------------



------------------------------------------------------------------------------
---X---x---x---x---x---x---x---x----------------------------------------------
---x---x---x---x---x-2-x---x---x-----x---x---x---x---x-----x---x---x----------
---x---x---x-2-x-4-x---x---x-2-x-4---x---x---x---x---x-2---x---x---x----------
-----0---3---------------3-----------x---x---x-2-x-4-x-----x---x-2-x-4--------
---------------------------------------0---3-----------------3----------------



------------------------------------------------------------------------------
----------------------------------2-------------------------------------------
----------------------------2p0---1-------------------------------------------
--x---0-1-2-0-----------2-4-----2---------------------------------------------
--2-4---------4-2-0--/4-------------------------------------------------------



---0-----0-0-----0-0-0-0-0-0-2/4---0-----0-0-----0-0-----0-0-2-2--------------
-----2p0-----2p0---------------------2p0-----2p0-----2p0----------------------
------------------------------------------------------------------------------
------------------------------------------------------------------------------
------------------------------------------------------------------------------
------------------------------------------------------------------------------

 00:32



-0------0-0-----0-0-----0-0-2/4-0------0------------------------0-------------
---2p0------2p0-----2p0-----------2p0----3p0--------------------0-------------
---------------------------------------------2/4-3/4-2p0---0p1----------------
---------------------------------------------------------2--------------------
------------------------------------------------------------------------------
------------------------------------------------------------------------------



--------------------2---------------------------------------------------------
------------------------------------------------------------------------------
------------------2-----3-----2--x---x---x---x----------2---------------------
--------------1---------2-----1--x---x---x---x---3p0----1---------------------
------------2---x-----3---2-2----x---x-----2---4-----2------------------------
-----------------------------------0---3--------------------------------------



-----------------------------------------------0------------0--3-0------------
--2/3-3-3-3-3-3-3-3-3-3-3-3-3-3-3-3------------0------------0------3-0-----0--
--3/4-4-4-4-4-4-4-4-4-4-4-4-4-4-4-4--2p0---0h1----2p0---0h1------------2b4----
-----------------------------------------2------------2-----------------------
------------------------------------------------------------------------------
------------------------------------------------------------------------------



----------------------------------------0-------------------------------------
-----0------------3---3p0---0-----------0-------------------------------------
-2/4---2p0---0h1----------2---2p0---0h1---------------------------------------
-----------0----------------------2-------------------------------------------
------------------------------------------------------------------------------
------------------------------------------------------------------------------



--------------------2---------------------------------------------------------
------------------------------------------------------------------------------
------------------2-----3-----2--x---x---x---x----------2---------------------
--------------1---------2-----1--x---x---x---x---3p0----1---------------------
------------2---x-----3---2-2----x---x-----2---4-----2------------------------
-----------------------------------0---3--------------------------------------



---0-0-0-0-0-0-0-0---/7-7-7-7-7-7-7-7-7---/10-10-10-10-10-10-10-10------------
---5-5-5-5-5-5-5-5---/8-8-8-8-8-8-8-8-8---/12-12-12-12-12-12-12-12------------
------------------------------------------------------------------------------
------------------------------------------------------------------------------
------------------------------------------------------------------------------
------------------------------------------------------------------------------

 00:54



--/12-12-12-12-12-12-12-12----12-12-12-12-12-12-12-12--15-12---------------0--
--/14-14-14-14-14-14-14-14----12-12-12-12-12-12-12-12--------15-12------------
-------------------------------------------------------------------2p0--------
-----------------------------------------------------------------------2-2----
------------------------------------------------------------------------------
------------------------------------------------------------------------------



--------------------0---------------------------------------------------------
-3p0----------------0---------------------------------------------------------
-----0h2-2-0---0h1------------------------------------------------------------
-------------2----------------------------------------------------------------
------------------------------------------------------------------------------
------------------------------------------------------------------------------



--------------------2---------------------------------------------------------
------------------------------------------------------------------------------
------------------2-----3-----2--x---x---x---x----------2---------------------
--------------1---------2-----1--x---x---x---x---3p0----1---------------------
------------2---x-----3---2-2----x---x-----2---4-----2------------------------
-----------------------------------0---3--------------------------------------



-12-12-12-12vv--/12--/9-/7-\4-4-3-2--------------------3-3-3------------------
-------------------------------------x--x---x---x---x--2-2-2------------------
-------------------------------------x--x---x---x---x--2-2-2-x---x---x---x----
-------------------------------------x--x---x-2-x-4-x--------x---x---x---x----
--------------------------------------0---3------------------x---x---x-2-x-4--
---------------------------------------------------------------0---3----------

 1:05



-----------0------------------------------------------------------------------
-2---------0------------------------------------------------------------------
-2p0---0h1--------------------------------------------------------------------
-----2------------------------------------------------------------------------
------------------------------------------------------------------------------
------------------------------------------------------------------------------



--------------------2---------------------------------------------------------
------------------------------------------------------------------------------
------------------2-----3-----2--x---x---x---x----------2---------------------
--------------1---------2-----1--x---x---x---x---3p0----1---------------------
------------2---x-----3---2-2----x---x-----2---4-----2------------------------
-----------------------------------0---3--------------------------------------


[ Tab from: http://www.guitartabs.cc/tabs/s/stevie_ray_vaughan/rude_mood_tab.html ]
----------------------0-----------------------0--3-0------------------------0-
-2p0---0----2p0---0---0--2p0---0----2p0---0---0------3-0-----3---3------------
-2p0---0h1--2p0---0h1----2p0---0h1--2p0---0h1------------2/4---2/4-2p0---0h1--
-----2----------2------------2----------2------------------------------2------
------------------------------------------------------------------------------
------------------------------------------------------------------------------

 1:15



-----------0------------------------------------------------------------------
------------------------------------------------------------------------------
-2p0---0h1---2p0-2p0---------2----3-----2-x---x---x---x---------2-------------
-----2---------------2p0---1------2-----1-x---x---x---x---3p0---1-------------
-------------------------2------3---2-2---x---x-----2---4-----2---------------
--------------------------------------------0---3-----------------------------



------------------------------------------------------------------------------
-11/12-12-11/12--11/12-12-11/12--11/12-12-11/12-12-12-11/12-12-12-11/12-12-12-
-12/13-13-12/13--12/13-13-11/12--12/13-13-12/13-13-13-12/13-13-13-12/13-13-13-
------------------------------------------------------------------------------
------------------------------------------------------------------------------
------------------------------------------------------------------------------

 1:27



-3-0-----------------------0----------------------0---------------------------
-----3-0-----3----------------3-----------------------------------------------
---------2/4---4-2p0---0h1------2p0---0-2p0---0h1-----------------------------
---------------------2--------------2-------2---------------------------------
------------------------------------------------------------------------------
------------------------------------------------------------------------------



--------------------2---------------------------------------------------------
------------------------------------------------------------------------------
------------------2-----3-----2--x---x---x---x----------2---------------------
--------------1---------2-----1--x---x---x---x---2p0----1---------------------
------------2---x-----3---2-2----x---x-----2---4-----2------------------------
-----------------------------------0---3--------------------------------------



--------------0-0----7-7-7----10-10-10-10--------12-------12---------12-------
-----3-3--3/5-5-5--5/8-8-8----12-12-12-12-----------15-12----15b17vv----15-12-
-2/4-4-4------------------------------------11/13-----------------------------
------------------------------------------------------------------------------
------------------------------------------------------------------------------
------------------------------------------------------------------------------

 1:38



-------------0------------------0---------2-----------------------------------
---------------3p0------------------------------------------------------------
-3\2p0---0h1-------0--2p0---0h1---------2-----3-----2-x---x---x---x---------2-
-------2------------------2---------1---------2-----1-x---x---x---x---2p0---1-
----------------------------------2---x-----3---2-2---x---x-----2---4-----2---
--------------------------------------------------------0---3-----------------



--12-12-12-12---12-12-12-12---12--9--7--/4-4-3-3-2-0-----------------3-3-3----
--12-12-12-12---12-12-12-12---12-------------------------------------2-2-2----
--13-13-13-13---13-13-13-13--------------------------x---x---x---x---2-2-2----
--14-14-14-14---14-14-14-14--------------------------x---x---x-2-x-4----------
-------------------------------------------------------0---3------------------
------------------------------------------------------------------------------

 1:49



----------------------------0-------2-----------------------------------------
------------------------------------------------------------------------------
-x---x---x---x----2p0---0h1-------2-----3-----2--x---x---x---x---------2------
-x---x---x---x--------2---------1-------2-----1--x---x---x---x---2p0---1------
-x---x---x-2-x-4--------------2-------3---2-2----x---x---x-2-x-4-----2--------
---0---3-------------------------------------------0---3----------------------



--------------------------------------0---------------------------------------
----------------------------------------3-------------------------------------
-----------------------------0--2-0h1-----2b4-2-0-----------------------------
-----------0-1-2-0-----------2------------------------------------------------
-----0-1/2---------2-1-0------------------------------------------------------
--/3---------------------3-0--------------------------------------------------

 2:00



------------------------------------0-----------------------------------------
--------------------------------------3-----0---------------------------------
------------------------------2-0h1-----2b4---4r2-2---------------------------
-----------0-1-2-0-------0-2--------------------------------------------------
-----0-1/2---------2-1-0------------------------------------------------------
--/3--------------------------------------------------------------------------



----------------------------------------0---0-0-0-0----0-0-------------0------
------------------------------------------3/5-5-5-5--3/5-5--------------------
----------------------------------2-0h1--------------------2p0-0-0-0h1--------
------------0-1-2-0-------------2---------------------------------------------
-0----0-1/2---------2-1-0---0-------------------------------------------------
---/3---------------------3---3-----------------------------------------------



------------------0----3b-0---------------------------------------------------
----------------------------3-0--2/3-3----------------------------------------
--2p0---2p0---0h1----------------3/4-4-2p0---0h1-2-2p0---0h1-2p0-2p0----------
------0-----0------------------------------2-----------2-------------2p0------
------------------------------------------------------------------------------
------------------------------------------------------------------------------



-------------------2----------------------------------------------------------
------------------------------------------------------------------------------
-----------------2-----3-----2--x---x---x---x----------2----------------------
--------------1--------2-----1--x---x---x---x---3p0----1----------------------
------------2--------3---2-2----x---x-----2---4-----2-------------------------
----------------------------------0---3---------------------------------------



----------------------------9--7-7-7-9/12-12-12-12-12-12-12-12-12-12-12-12----
-8b9-8b9--8b9-8b9--8b9-8b9--8--8-8-8------------------------------------------
------------------------------------------------------------------------------
------------------------------------------------------------------------------
------------------------------------------------------------------------------
------------------------------------------------------------------------------

 2:21



-12-12-12-----0/5-3-----------------------------------------------------------
--------------------3-0-3-----0-----------------------------------------------
--------------------------2/4---\2p0----2p0-----------------------------------
-------------------------------------2------2p0-------------------------------
------------------------------------------------------------------------------
------------------------------------------------------------------------------



--------------------2---------------------------------------------------------
------------------------------------------------------------------------------
------------------2-----3-----2--x---x---x---x----------2---------------------
--------------1---------2-----1--x---x---x---x---2p0----1---------------------
------------2---x-----3---2-2----x---x-----2---4-----2------------------------
-----------------------------------0---3--------------------------------------



------------------------------------------------------------------------------
------------------------------------------------------------------------------
------------------------------------------------------------------------------
------------------------------------------------------------------------------
-2-2-4-2--2-2-4-2--2-2-4-2--2-2-4-2--2-2-4-2--2-2-4-2--2-2-4-2--2-2-4-2-------
-0-0-0-0--0-0-0-0--0-0-0-0--0-0-0-0--0-0-0-0--0-0-0-0--0-0-0-0--0-0-0-0-------

 2:33



------------------------------------------------------------------------------
-----------------2------------------------------------------------------------
-2---x---x---x---2---x---x----x-----------------------------------------------
-2---x---x-2-x-4-----x-2-x-4--x-----------------------------------------------
-0-0---3-----------3----------x-2-2-4-2--2-2-4-2--2-2-4-2--2-2-4-2------------
--------------------------------0-0-0-0--0-0-0-0--0-0-0-0--0-0-0-0------------



--------------------2---------------------------------------------------------
------------------------------------------------------------------------------
------------------2-----3-----2--x---x---x---x----------2---------------------
--------------1---------2-----1--x---x---x---x---3p0----1---------------------
------------2---x-----3---2-2----x---x-----2---4-----2------------------------
-----------------------------------0---3--------------------------------------



------------------------------------------------------------------------------
------------------------------------------------------------------------------
------------------------------------------------------------------------------
------------------------------------------------------------------------------
-2-2-4-2--2-2-4-2--2-2-4-2--2-2-4-2--2-2-4-2--2-2-4-2--2-2-4-2--2-2-4-2-------
-0-0-0-0--0-0-0-0--0-0-0-0--0-0-0-0--0-0-0-0--0-0-0-0--0-0-0-0--0-0-0-0-------



------------------------------------------------------------------------------
-----------------2------------------------------------------------------------
-2---x---x---x---2------------------------------------------------------------
-2---x---x-2-x-4---4--2--4----------------------------------------------------
-0-0---3-----------0--0--0--------2-2-4-2--2-2-4-2--2-2-4-2--2-2-4-2----------
----------------------------------0-0-0-0--0-0-0-0--0-0-0-0--0-0-0-0----------



--------------------2---------------------------------------------------------
------------------------------------------------------------------------------
------------------2-----3-----2--x---x---x---x----------2---------------------
--------------1---------2-----1--x---x---x---x---3p0----1---------------------
------------2---x-----3---2-2----x---x-----2---4-----2------------------------
-----------------------------------0---3
Comments