Stevie Ray Vaughan - Pride And Joy Chords & Tabs

 

Pride And Joy Chords & Tabs

Stevie Ray Vaughan Chords & Tabs

Version: 2 Type: Tab 0 ratings
1 star 2 stars 3 stars 4 stars 5 stars
comments

Pride And Joy Tab

   
#----------------------------------PLEASE NOTE---------------------------------#
#This file is the author's own work and represents their interpretation of the #
#song. You may only use this file for private study, scholarship, or research. #
#------------------------------------------------------------------------------##

                                  PRIDE AND JOY
               As recorded by Stevie Ray Vaughan & Double Trouble
                        (From the 1983 Album TEXAS FLOOD)

Words and Music by Stevie Ray Vaughan


Gtr I (Eb Ab Db Gb Bb Eb) - 'Stevie Ray Vaughan - Fender Strat'

 Intro
    Moderate shuffle Q=124(8=s8)
    N.C.
 4/4
    Gtr I
  E a E E E E E E E   E      E  E      E  E      E  E  E
|-----0-0-0-0-0-0---|-7------7--7------7--7------7--7\---|
|---3s5-5-5-5-5-5---|-8b8.5==8r-8b8.5==8r-8b8.5==8r-8\---|
|-------------------|------------------------------------|
|-----------------0-|------------------------------------|
|-----------------0-|----------------------------------0-|
|-----------------0-|----------------------------------0-|


  |-3-|
  E E E E E E E E E   E E E    +E  +E  E E E
|-----0-0-0-0-0-0-0-|-0--------------------0---|
|-3s5-5-5-5-5-5-5-5-|-5--------------------0---|
|-------------------|---0-2b3==(2)r(2)-0---0---|
|-------------------|---0----------------2-----|
|-------------------|---0----------------------|
|-------------------|--------------------------|


  E
  E  E E   E  E  E E  E   E  E E   E  E  E E E   E E E  E E  E E  E
|---!0---!-0----!0---!0-|---!0---!-0----!0-2-0-|-0-0---!0---!0---!0-|
|---!0---!-0----!0---!0-|---!0---!-0----!0-2-0-|-0-0---!0---!0---!0-|
|---!0---!-0----!0---!0-|---!0---!-0----!0-2-0-|-1-----!0---!0---!0-|
|--------!(0)-----------|-2------!(0)----------|-2------------------|
|--------!(0)-2----4----|--------!(0)-2--------|-2--------2----4----|
|-0----3h!-4------------|------3h!-4-----------|-0---3h!4-----------|


                      A7
  E E E  E  E E E E   E E E  E  E  E  E  E    E  E  E  E  E E E E
|---0----0----0-2-0-|---0----0----(0)---(0)-|---(0)---(0)---0-2-0-|
|---0----0----0-2-0-|---0----0-----0-----0--|----0-----0----0-2-0-|
|---0----0----0-2-0-|---0----0-----0-----0--|-2--0-----0----0-2-0-|
|-2-----(0)---------|-2-----(0)-2-----4-----|---------(0)-2-------|
|-------(0)-2-------|-0---3h=4--------------|-------3h=4----------|
|-----3h=4----------|-----------------------|---------------------|


  E
                                          |-3-|
  E E E  E  E  E  E  E    E  E  E  E  E E E E E
|-0-0---(0)---(0)---(0)-|---(0)---(0)---0-------|
|-0-0----0-----0-----0--|----0-----0----0-----3-|
|-1-0----0-----0-----0--|----0-----0----0-2s4---|
|-2------0--------------|-2--------0------------|
|-2-----(0)-2-----4-----|---------(0)-2---------|
|-0---3h=4--------------|-------3h=4------------|


  B7                            A7
  |-3-| |-3-|   |-3--| |-3--|   |-3-| |-3-| |--3--| |---3---|
  E E E E E E a E. S E S E. E   E E E E E E E S S E E E     E
|-----------------------------|-------------------------------|
|-----3-----3-----------------|-------------------------------|
|-2s4-4-3s4---4s2--0----------|-------------------------------|
|--------------------2--------|-0-1-2-----------------------2-|
|----------------------0h2--2-|-------0-2-1-0h1p0---0---------|
|-----------------------------|-------------------3---3b3.5---|


                                                      1st Verse
  E                                       B7           E
                                        ~~~~~~
        |-3-| |-3-|   |-3-|         |-3-|
  E E a E E E E E E a E E E    E  E E E E +E  E E E    E E E E E E E E
|---0-----------------------|-----------------0---0-||---0---0---0---0-|
|---0-2s3-3-3-3-3-3---------|-----------------0---0-||---0---0---0---0-|
|---0-3s4-4-4-4-4-4-4s2-0---|-----------------0---0-||---0---0---0---0-|
|-------------------------2-|-(2)-------------------||-----------------|
|---------------------------|-------0-1-2-(2)-------||-----------------|
|-0-------------------------|--0--3-----------------||-----------------|


                                                              A7
                 |-3--|
  E E E E E E   +E  E E   E E E E E E E E   E E E E E E E E   E E E E E E E E
|---0---0---------------|-0-0---0---0---0-|---0---0---0-0---|-------0-----3-3-|
|---0---0---------------|-0-0---0---0---0-|---0---0---0-0---|---2---0---2-2-2-|
|---0---0---2b3r(2)p0---|-1-0---0---0---0-|---0---0---0-----|---2---0---2-2-2-|
|---------------------2-|-2---------------|-----------------|---2---0---2-----|
|---------------------2-|-2---------------|-----------------|---0---0---0-----|
|---------------------0-|-0---------------|---------------0-|-----------------|


                              E
   |---3----|
  +E. S     E E E +E  E E E   E E E E E E E E
|-(3)-3b3.5---3-3-(3)-----0-|---0---0---0---0-|
|-(2)---------2-2-(2)-----0-|---0---0---0---0-|
|-(2)-------2---2-(2)-0---0-|---0---0---0---0-|
|-----------2---------0-----|-----------------|
|-----------0---------0-----|-----------------|
|---------------------------|-----------------|


                    B7
  PM
  E E E E E E E E   E E E E E  E  E E
|---0---0---0---0-|-----------(0)---0-|
|---0---0---0---0-|---0--------0----0-|
|---1---1---1---0-|---4--------4----0-|
|---------------0-|---4-----4--4--6---|
|-----------------|-2---5h6-0-----0---|
|-0---------------|-------------------|


  A7                E                                  B7
                                                     ~~~~~~
                        |-3-|      |-3-|         |-3-|
  E E E E E E E E   E E E E E E E  E E E    E  E E E E +E  E E E
|---0-------0-2-0-|-0-0-------0-0--------|-----------------0---0-||
|---0---0-0-0-2-0-|-0-0-----3-3-3--------|-----------------0---0-||
|-0-0---0-x-0-2-1-|-1-0-2-4-----4-/2-0---|-----------------0---0-||
|-2-------2-------|-2------------------2-|-(2)-------------------||
|-0---3h4---------|----------------------|-------0-1-2-(2)-------||
|-----------------|----------------------|--0--3-----------------||


 2nd Verse
  E
  E E E E E E E E   E E E E E E E E   +E  E E E E E E E   E E E E E E E E
|---0---0---0---0-|---0---0---0---0-|-(0)-0---0---0---0-|---0---0-0-0------|
|---0---0---0---0-|---0---0---0---0-|-(0)-0---0---0---0-|---0---0---0------|
|---1---1---1---1-|---1---1---1---1-|-(1)-1---1---1---1-|---1---1---1------|
|-----------------|-----------------|-------------------|------------------|
|-----------------|-----------------|-------------------|------------------|
|-----------------|-----------------|-------------------|-------------3-4--|


  A7                                              E
  E E E E +E      E E E   +E      E E E E E E E   E E E E E E E E
|-----3-3-(3)b3.5---3-3-|-(3)b3.5---------0---0-|---------0-0-2-0-|
|-----2-2-(2)-------2-2-|-(2)-----0-------0---0-|---0-2-0-0-0-2-0-|
|-------2-(2)-----2-2-2-|-(2)-----0-------0---0h|=1-1-2-0-1-1-2-1-|
|-----------------2-----|---------0-------------|-2-----2---------|
|-0-0-------------0-----|---------------2---4---|-2---------------|
|-----------------------|-----------3h4---------|-0---------------|


                          B7                A7
  PM
                                                        |-3-|
  E  E   E  E E E E a E   E E E E E E E E   E E E E E E E E E
|----0---2----0-0-2---0-|-2-2-------------|-------------------|
|----0---2----0-0-2---0-|-----------------|-------------------|
|----1---2----1-1-2-0h1-|-2-2-----------4-|-------------------|
|---(2)-(2)-2-2-----0h2-|---------4-4-6---|-2-2-----2-2-5p0-2-|
|-----------------------|-2-2-5-6-0-0-0---|-0-0-3-4-0-0-------|
|-0---------------------|-----------------|-------------------|


                                                  3rd Verse
                                      B7      E
                                    ~~~~~~
       |-3-| |-3-|  |-3-|       |-3-|
  E E  E E E E E E  E E E   E E E E E +E  E E E    E E Q  E E S   +S  S S
|---0---------------------|-------------------0-||-0--------0-------------|
|---0-/3-3-3-3-3-3--------|---------------2-2-0-||-0--------0-------------|
|---0-/4-4-4-4-4-4-/2-0---|---------------2-2-1-||-1--------0-2b4r(2)p0---|
|-----------------------2-|---------------2-2-2-||-2--------------------2-|
|-------------------------|-----0-1-2-(2)-----2-||-2----------------------|
|-0-----------------------|-0-3---------------0-||-0----------------------|


                                           E
                                            |-3-| |-3-| |-3-|  |-3-|
  E E Q  E E S   +S  S S   E E Q  Q  E E    E E E E E E E E E  E E E
|-0--------0-------------|-0-----------0-|----0-0-0-0-0-0-0-0----0---|
|-0--------0-------------|-0-----------0-|-/3-3-3-3-3-3-3-3-3----0---|
|-1--------0-2b4r(2)p0---|-1-----------0-|-/4-4-4-4-4-4-4-4-4-\2-0---|
|-2--------------------2-|-0-------------|-------------------------2-|
|------------------------|---------------|---------------------------|
|------------------------|---------------|---------------------------|


  A7                                      E
                                              |--3--| |-3-|   |-3-|
  E E E E E E E E   E     E E E E E E E   E E E   E E E E E   E E E
|-----------------|-3b3.5-0-------0-2-0-|-0---------0---------------|
|-----------------|-2-----0-------0-2-0-|-0-0-----0---3p0-----------|
|-----------------|-2-----0-------0-2-1-|-1-0-2b3---------2b3r2p0---|
|-2-2-----2-2-4-2-|-------------2-----2-|---0---------------------2-|
|-0---3-4-0-0-0-0-|---------3-4---------|---------------------------|
|-----------------|---------------------|---------------------------|


                                      B7
  |-3-| |-----3-----|         |-3-|        |-3--|     |-3-|
  E E E E      +E   E E     E E E E   E E +E  E E E E E E E
|---0---------------0------!0-------|---------2---2-2-2-2p0-|
|---0---3b3.5==(3)r-0------!0-------|---0-(0)-0---0-0-0-0---|
|-----0---------------0tr1-!0-------|---2-(2)-2---2-2-2-2---|
|-----1-----------------------------|---0-(0)-----1---------|
|-2-----------------------------0-1-|-2-2-(2)-----2-------0-|
|-0---------------------------3-----|-----------2-----------|


  A7                              E
  |---3---|         |-3-| |-3-|       |-3-|      |-3-|
  E.    S E S S S S E E E E E E   E E E E E E  E E E E
|-3b3.5-0-------0---------------|---0-------0-!0-------|
|-------0-3-----3---------------|---0-----3-3-!3-------|
|-------0---2s4-4-4s2-0---------|---0-3s4-----!4s2p0---|
|-----------------------2-0-1-2-|--------------------2-|
|-------------------------------|----------------------|
|-------------------------------|-0--------------------|


                              Guitar Solo
          B7
          ~~~~~~
      |-3-|         |--3--|      |--3---|  |--3--|  |--3--|  |--3--|
  E E E E E +E  E   E  E  E      E   E  E  E  E  E  E  E  E  E  E  E
|---------------0------0--0-||--(0)--0--0--0--0--0--0--0--0--0--0--0-|
|---------------0-/12-12-12-||-/12--12-12-12-12-12-12-12-12-12-12-12-|
|---------------0-/13-13-13-||-/13--13-13-13-13-13-13-13-13-13-13-13-|
|---------------------------||---------------------------------------|
|-----0-1-2-(2)-------------||---------------------------------------|
|-0-3-----------------------||---------------------------------------|


    |--3--|  |--3--|  |--3--|  |--3--|
    E  E  E  E  E  E  E  E  E  E  E  E
|------0--0--0--0--0--0--0--0--0--0--0--|
|-/15-15-15-15-15-15-15-15-15-15-15-15\-|
|-/16-16-16-16-16-16-16-16-16-16-16-16\-|
|---------------------------------------|
|---------------------------------------|
|---------------------------------------|


    |--3---|  |--3--|  |--3--|  |--3--|
    E   E  E  E  E  E  E  E  E  E  E  E
|--(0)--0--0--0--0--0--0--x--x--x--x--x-|
|-/12--12-12-12-12-12-12-12-12-12-12-12-|
|-/13--13-13-13-13-13-13-13-13-13-13----|
|---------------------------------------|
|---------------------------------------|
|---------------------------------------|


   |---3----|  |----3-----|  |----3-----|  |----3-----|
   E     E  E  E       E  E  E       E  E  E       E  E
|-------12-12---------12-12---------12-12---------12-12-|
|-------12-12-15b15.5-12-12-15b15.5-12-12-15b15.5-12-12-|
|-14b15-------------------------------------------------|
|-------------------------------------------------------|
|-------------------------------------------------------|
|-------------------------------------------------------|


  A7
   |----3-----|  |---3----|  |----3----|   |--3---|
   E       E  E  E     E  E  E  E      E  +E   E  E
|-15b15.5-12----------12-12-------------------------|
|---------12-12-------12-12-15----------------------|
|---------------14b15----------14b16==14r(14)-12----|
|------------------------------------------------14-|
|---------------------------------------------------|
|---------------------------------------------------|


   |------3-------|   |----3-----|      |-----3-----|   |--3---|
   E       E     +E   E     +E   E     +E   E      +E   E   E  E
|----------------------------------------------------------------|
|----------------------------------------------------------------|
|-12b12.5-14b16-(14)-14b16-(14)-14b16-(14)-14b16==(14)-14rp12----|
|-------------------------------------------------------------14-|
|----------------------------------------------------------------|
|----------------------------------------------------------------|


  E
   ~~~~~~~
            |--3--|  |----3-----|    |--3--|
   Q        E  E  E  E  E      +E    E  E  E
|--------------------------------------12-12-|
|-----------------------------------12-12-12-|
|-12b12.5--------------14b16==(14)r----------|
|----------14p12-14/-0-----------------------|
|----------------14/-0-----------------------|
|--------------------------------------------|

[ Tab from: http://www.guitartabs.cc/tabs/s/stevie_ray_vaughan/pride_and_joy_tab_ver_2.html ]
                                        B7
                          |-3-| |-3-|        |-3--|     |-3-|
   E   a E    +S  +S  S S E E E E E E   E E +E  E E E E E E E
|----!12----------------------0-------|---------2-----2-------|
|-15-!15--------------0---0---0-------|---------0-----0---0-0-|
|----!14s2b4==(2)r(2)p0---0h1---------|---2-(2)-2---2-2-2p0-0-|
|-----------------------2-------------|---1-(1)---1-1---------|
|---------------------------------0-1-|-2-----------2---------|
|-------------------------------3-----|-----------------------|


  A7
  |3-|  |---3---| |--3--|  |-3--|
  E  Q  E E     E E E a E +E. S E
|-5s17\-0-3b3.5-0-----------------|
|-------0-3b3.5-0-3---------------|
|-----------------3-2-3p2-(2)-0---|
|-------------------------------2-|
|---------------------------------|
|---------------------------------|


  E                              C9B9
        |-3-|      |-3-|                     |-3-|
  E E a E E E E E  E E E   a E E E E +E  E a E E E
|---0---------0-0--------|-------3-2-(2)-0---0-0-0-|
|---------3-3-3-3--------|---0---3-2-(2)-0-3s5-5-5-|
|-----2s4-4-4-4-4-\2-0---|-0h1---3-2-(2)-0---------|
|----------------------2-|---2---------------------|
|------------------------|-----0-------------------|
|-0----------------------|-----0-------------------|


  E
  |-3-| |-3-| |-3-| |-3-|   |3|                        |-3-|
  E E E E E E E E E E E E   E Q E     E +S      E.     E E E
|-0-0-0-0-0-0-0-0-0-0-0-0-|---7-7-----7-(7)-----7------------|
|-5-5-5-5-5-5-5-5-5-5-5-5-|---8-8b8.5r8-(8)b8.5-8b8.5--------|
|-------------------------|---------------------------\2p0---|
|-------------------------|--------------------------------2-|
|-------------------------|-0--------------------------------|
|-------------------------|-0--------------------------------|


                                                            A7
  |-3-|            |-3--|   |---3---|     |------3------|   |--3--| |-3-|
  E a Q E E E  E   E  E E   Q Q     Q     Q     Q     E E   E E Q Q Q Q Q
|-----0-0---0--0---0--0---|-7-7b7.5-7b7.5-7b7.5-7b7.5-7p0-|-----0-0-0-0-0-|
|---3s5-5---5--5---5--5---|-8-8b8.5-8b8.5-8b8.5-8b8.5-8-0-|-7s8-8-8-8-8-8-|
|-------------(5)-(5)-----|-----------------------------0-|-8s9-9-9-9-9-9-|
|---------0-------------0-|-------------------------------|---------------|
|-0-------0-------------0-|-------------------------------|---------------|
|-0-------0-------------0-|-------------------------------|---------------|


                     E
  |-3-|      |-3-|   |-3-| |---3---|   |--3--| |-3-|
  Q Q Q E E  E E E   E E E E    E  E a E S S E E E E
|-0-0-0-0-0--------|-----0-----(0)-------------------|
|-8-8-8-8-8--------|-----0-3b4--0--3-------3---------|
|-9-9-9-9-9-\2-0---|-0h1-------------2s4-4---4-2-0---|
|----------------2-|-2-----------------------------2-|
|------------------|---------------------------------|
|------------------|---------------------------------|


   |-3--| |----3----|        |-3-|        |-3--|
   E  E E E    +E   E E    E E E E   E E +E  E E E E E  E
|-----0-0-----------0------0-------|---------2-----2-2p=0--|
|-----0-0-3b4==(3)r-0------0-------|---0-(0)-0---0-0-0--0--|
|---------------------0tr1-0-------|---2-(2)-----2-2-2--0--|
|-(2)------------------------------|---1-(1)---1-1-----(0)-|
|------------------------------0-1-|-2---------2-----------|
|--0-------------------------3-----|-----------------------|


  A7
  |---3---|          |-3-| |-3-|
  E     E E S S S S  E E E E E E
|-3b3.5-0-x-----0----------------|
|---------3-----3-3--------------|
|-----------2-4---4-\2-0---------|
|------------------------2-0-1-2-|
|--------------------------------|
|--------------------------------|


  E                                 B7
                                  ~~~~~~
        |-3-|     |-3-|       |-3-|
   E  E E E E E E E E E   E E E E E +E  E E E
|-----0-------0-0-------|---------------------||
|-----0-----3-3-3-------|---------------0---0-||
|-----0-2s4-----4s2-0---|---------------0---0-||
|-(2)-----------------2-|---------------0---0-||
|-----------------------|-----0-1-2-(2)-------||
|--0--------------------|-0-3-----------------||


 4th Verse
  E
  PM
                                  |--3--|
  E E Q  E  E E E     H    E E   +E  E  E    E E Q  H
|----------!0-----|---------------------0--|-0-----------|
|----------!0---0-|---------------------0--|-0-----------|
|----------!0---0-|----------2b4r(2)p0--0--|-1-----------|
|---------------0-|--------------------(0)-|-2-----------|
|-------------0---|------------------------|-------------|
|-0-----------0---|------------------------|-------------|


         Asus4   A7
  H    E E E E   E E E E E E E  E    +E      E E E +E      E E E
|--------------|-------------3--3--|-(3)b3.5-0-3-3-(3)b3.5p0---0-|
|--------3---3-|-------------2--2--|-(2)-----2-2-2-(2)-----0---0-|
|--------2---2-|---x---x-x---2--2--|-(2)-----2-2-2-(2)-----0---0-|
|--------2---2-|---x---x-x-2----2--|-(2)-----2---2-(2)-----------|
|--------------|-x---x-----0---(0)-|-(0)---------0-(0)-----------|
|--------------|-------------------|-----------------------------|


  E                                         B7
                                                          |-3-|
  E E E E E E E E   E E E E +E  E +E  E   a E E E E +E  E E E E
|---0---0---0---0-|---0---0-(0)-0-(0)---|---------2-(2)-2-2-2p0-|
|---0---0---0---0-|---0---0-----0-----0-|-------0-0-(0)-0-0-0-0-|
|---1---1---1---1-|---1---1-----1-----0-|-----2-2-2-(2)-2-2-2-0-|
|---2-------------|-------------------0-|-----1-1---------------|
|-----------------|---------------------|-1s2-2-----------------|
|-----0-------0---|---------------------|-----------------------|


  A7                    E                                   B7  E
                                                            ~
                                |-3-| |-3-| |-3-|       |-3-|
  E E E E E E E     E    E  E a E E E E E E E E E   E E E E E E E E E
|-----3---3-3---------|---------------------------|-----------0-0---0--||
|---2-2-2-2-2---------|-----0-----3-3-3-3-3---0---|-----------0-0---0--||
|-2-2-2-2-2-2---------|-----0-2s4-4-4-4-4-4-2p0---|-----------0-1---1--||
|-2-2---2-----------2-|-(2)---------------------2-|-------------2---2--||
|-0-----0-------------|---------------------------|-----0-1-2---2------||
|-------------3b3.5---|--0------------------------|-0-3---------0------||


 5th Verse
  E
  E  E  E  E  E  E  E  E    E E E E +E  E +E  E    E   E  E E E E E E
|---(0)---(0)---(0)---(0)-|---0---0-(0)-0-(0)-0-|-(0)-(0)---0---0---0-|
|----0-----0-----0-----0--|---0---0-----0-----0-|------0----0---0---0-|
|----1-----1-----1-----1--|---1---1-----1-----1-|------1----1---1---1-|
|----2-----2-----2-----2--|---2---2-----2-----2-|------2----2---2---2-|
|-------------------------|-------------------2-|---------------------|
|-0-----------------------|---------------------|--0------------------|


                      A7
  E E E E +E  E E E   E E  E   E  +E      E  E   E    +E       E  E E E E E E
|---0---0-(0)-0-----|------3---3--(3)b3.5----3---3--|-(3)b3.5-(0)-------------|
|---0---0-----0-----|------2---2--(2)--------2---2--|-(2)------0--------------|
|---1---1-----1-----|------2---2--(2)-----2--2---2--|-(2)------0------2-2-----|
|---2---2-----2-----|-----(2)-(2)-(2)-----2-(2)-(2)-|-(2)-------------2-2-4-2-|
|-------------------|-0-0-(0)-(0)-(0)-------(0)-(0)-|-(0)-------------0-0-0-0-|
|-0-------------3-4-|-------------------------------|-------------3-4---------|


  E                                             B7
                                       |-3--|                 |-3-|
  E E E E a E E  E  E   E E  E  E E E +E  E E   E E E E +E  E E E E
|-----2-----0---(2)---|-0----2----0-0-(0)-0---|-------2-(2)-2---2---|
|---0-2-----0-0--2----|-0----2----0-0-(0)-0-3-|-----0-0-(0)-0-0-0---|
|---1-2-1-0h1-1--2--2-|-1----2----1-1-(1)-----|-----2-2-(2)-2-2-2---|
|---2-2-2-----2--2--2-|-2-2-(2)---2-----------|---1-1-1-(1)-1-1---2-|
|-------2-------------|-2-2-----2-2-----------|-2-2---------------0-|
|-0-------------------|-0-0-----0-0-----------|---------------------|


  A7                                E
       |---3----| |---3---| |-3-|            |-3-| |-3-| |-3-|
  E E +E      E E S S S S E E E E    E   E   E E E E E E E E E
|---3-(3)b3.5-0-------------------|-----(0)--------------------|
|-2-2-(2)-----0-3-------3---------|------0--/3-3-3-3-3-3---0---|
|-2-2-(2)---------2s4-4---4-2-0---|------0--/4-4-4-4-4-4-2p0---|
|-2-----------------------------2-|-(2)----------------------2-|
|-0-------------------------------|----------------------------|
|---------------------------------|--0-------------------------|


                             Outro-Solo
              B7              E7
            ~~~~~~
        |-3-|        |-3-|    |-3-| |-3-| |-3-| |-3-|
   E  E E E E +E  E  E E E    E E E E E E E E E E E E
|-----------------0--------||-------------------0-0-0-|
|-----------------0----3-3-||-3-3-3-3-3-3-3-3-3-3-3-3-|
|-----------------0-/4-4-4-||-4-4-4-4-4-4-4-4-4-4-4-4-|
|-(2)----------------------||-------------------------|
|-------0-1-2-(2)----------||-------------------------|
|--0--3--------------------||-------------------------|


  E6                         E
   |-3-| |-3-| |-3-| |-3-|     |--3--|  |--3--|  |--3--|  |--3--|
   E E E E E E E E E E E E     E  E  E  E  E  E  E  E  E  E  E  E
|----0-0-0-0-0-0-0-0-0-0-0-|------0--0--0--0--0--0--0--0--0--0--0-|
|-/5-5-5-5-5-5-5-5-5-5-5-5-|-/12-12-12-12-12-12-12-12-12-12-12-12-|
|-/6-6-6-6-6-6-6-6-6-6-6-6-|-/13-13-13-13-13-13-13-13-13-13-13-13-|
|--------------------------|--------------------------------------|
|--------------------------|--------------------------------------|
|--------------------------|--------------------------------------|


  E7
    |--3--|  |--3--|  |--3--|  |--3--|
    E  E  E  E  E  E  E  E  E  E  E  E
|------0--0--0--0--0--0--0--0--0--0--0-|
|-/15-15-15-15-15-15-15-15-15-15-15-15-|
|-/16-16-16-16-16-16-16-16-16-16-16-16-|
|--------------------------------------|
|--------------------------------------|
|--------------------------------------|


  A7
   |--3--|  |--3--|  |----3-----|   |--3--|
   E  E  E  E  E  E  E  E      +E   E  E  E
|-------------------14-14pb15r(14)-12-------|
|----12----12----12-14-14pb16r(14)-12-------|
|-14-12----12----12-14-14pb16r(14)-12----12-|
|-------14----14----------------------14-14-|
|-------------------------------------------|
|-------------------------------------------|


   |---3----|  |-----3------|    |-3-|
   E     E  E  E      +E   +E   +E   Q     E      E
|----------12-15b17==(15)r(15)-(15)-15b17-15b17==15r-|
|-------12-------------------------------------------|
|-14b15----------------------------------------------|
|----------------------------------------------------|
|----------------------------------------------------|
|----------------------------------------------------|


  E
   ~~~~~~~                                            ~~
            |--3--|  |------3------|  |----3----|           |--3--|  |----3-----|    |--3--|
   Q        E  E  E  S     +S   E  E  E  E      E     E  E  E  E  E  E  E      +E    E  E  E
|-15b15.5--12---------------------------------(12)-|--------------------------------12-12-----|
|-------------15-12----------------------------12--|----12--------------------------12-12-12--|
|-------------------14b16r(14)p12----12-14b16------|-12-12------------------------------------|
|---------------------------------14---------------|-------14p12-------14b15==(14)r-----------|
|--------------------------------------------------|-------------14-12------------------------|
|--------------------------------------------------|------------------------------------------|


  B7
                                                  ~~~
   |------3-------|    |--3---|   |-----3------|
   E       E  S   S   +E   S  E.  E      +E    E  E  E
|---------12-12h=14--(14)-14-12------------------------|
|-15b15.5-12-12-(12)-(12)-12-----15b16==(15)r-12-------|
|------------------------------------------------14p12-|
|------------------------------------------------------|
|------------------------------------------------------|
|------------------------------------------------------|


  A7                                               E
   |---3----|  |----3-----|    |--3---|  |--3--|
   E     E  E  E  E      +E   +E   E  E  E. S  E   E E     E E   E E   E E
|-------12-12-15---------------------------------|---3b3.5p0-----0---------|
|-------12-12-15-15-----(15)------12-------------|-----------3b4-0---------|
|-14b15----------14b16==(14)r(14)-12-------------|-----------------2b4-0-1-|
|------------------------------------14-12h14-14-|-------------------------|
|------------------------------------------------|-------------------------|
|------------------------------------------------|-0-----------------------|


      H.=H
      B9E7add9
                       ~~~
  E E E E +Q    Q     +W           E E Q  H
|---0---------------|------------|-------------*|
|---0-7-8-(8)--(8)--|-(8)--------|-------------*|
|---0-6-7-(7)--(7)--|-(7)--------|-------------*|
|-2---7-6-(6)--(6)--|-(6)--------|-------------*|
|-----6-7-(7)--(7)--|-(7)--------|-------------*|
|---------------0---|-(0)--------|-0-----------*|


Duration Legend
---------------
W - whole; H - half; Q - quarter; E - 8th; S - 16th; T - 32nd; X - 64th; a - acciaccatura
+ - note tied to previous; . - note dotted; .. - note double dotted
Uncapitalized letters represent notes that are staccato (1/2 duration)
Irregular groupings are notated above the duration line
Duration letters will always appear directly above the note/fret number it represents the
duration for.  Duration letters with no fret number below them represent rests.  Multi-
bar rests are notated in the form Wxn, where n is the number of bars to rest for.  Low
melody durations appear below the staff

Tablature Legend
----------------
 h   - hammer-on
 p   - pull-off
 b   - bend
 pb  - pre-bend
 r   - bend release (if no number after the r, then release immediately)
 /\  - slide into or out of (from/to "nowhere")
 s   - legato slide
 S   - shift slide
  - natural harmonic
[n]  - artificial harmonic
n(n) - tapped harmonic
 ~   - vibrato
 tr  - trill
 T   - tap
 TP  - trem. picking
 PM  - palm muting
\n/  - tremolo bar dip; n = amount to dip
 \n  - tremolo bar down
 n/  - tremolo bar up
/n\  - tremolo bar inverted dip
 =   - hold bend; also acts as connecting device for hammers/pulls
 <>  - volume swell (louder/softer)
 x   - on rhythm slash represents muted slash
 o   - on rhythm slash represents single note slash

Misc Legend
-----------
 |  - bar
||  - double bar
||o - repeat start
o|| - repeat end
*|  - double bar (ending)
 :  - bar (freetime)
 $  - Segno
 &  - Coda
Tempo markers -  = BPM(8/16=s8/s16), where s8 = swing 8ths, s16 = swing 16ths
Comments