Stevie Ray Vaughan - Mary Had A Little Lamb Chords & Tabs

 

Mary Had A Little Lamb Chords & Tabs

Stevie Ray Vaughan Chords & Tabs

Version: 3 Type: Tab 0 ratings
1 star 2 stars 3 stars 4 stars 5 stars
comments

Mary Had A Little Lamb Tab

   
"MARY HAD A LITTLE LAMB"  (by SRV) .... transcribed by Ron Lyster
 ----------------------

Intro:	[tabbed below]

Verse1:	                           A7
	    Mary had a little lamb
	    A7                               E7
	    its fleece was white as snow, yea
	    E7                       B7
	    Everywhere the child went
	    A7                                 E7
	    the little lamb was sure to go, yea

Verse2:	    He followed her to school one day
	    and broke the teacher's rule
	    What a time did they have
	    that day at school

Solo:	[tabbed below]

Verse3:	    Tisket .... tasket, baby
	    a green and yellow basket
	    Sent a letter to my baby
	    on my way out past it

Outro:	[tabbed below]


*********************************************************************

INTRO: (x2)
                    E7                             E7
||--------------------------------|------------------------------|
||------------------3-x-x-3-3-3-x-|----------------3-x-x-3-3-3-x-|
||------------------1-x-x-1-1-1-x-|----------------1-x-x-1-1-1-x-|
||-----0---------2--2-x-x-2-2-2-x-|-------------2--2-x-x-2-2-2-x-|
||-0-2---0-2-0--------------------|-1h2-2-2-0--------------------|
||-------------3-------------0----|-----------3-------------0----|

	1st time thru:                A7
	|-----------------------------3-x-x--3--3-|
	|-----------------------------2-x-x--2--2-|
	|------------------2h3p2p0----0-x-x--0--0-|
	|-----2--2-2-5--5-------------2-x-x--2--2-|
	|-2-4----------------------0--------------|
	|-----------------------------------------|

	2nd time thru:                A7
	|-----------------------------3-x-x--3--3-|
	|-----------------------------2-x-x--2--2-|
	|-----------------------------0-x-x--0--0-|
	|-----------------------------2-x-x--2--2-|
	|-1h2-2-2-0---0---------------------------|
	|-----------3-----------------------------|

                   E7              1st time:     B7
|--------------------------------| |---------------------------|
|------------------3-x-x-3-3-3-x-| |---------------------------|
|------------------1-x-x-1-1-1-x-| |---------------2---2-------|
|-----0---------2--2-x-x-2-2-2-x-| |-----------------1---------|
|-0-2---0-2-0--------------------| |-1h2-2-2-0-1-2-----------0-|
|-------------3-------------0----| |---------------------2-2---|

                                   2nd time:     B7
                                   |-------------------2-------|
                                   |-------------------0-------|
                                   |---------------2-2---2-----|
                                   |---------------------------|
                                   |-1h2-2-2-0-1-2-----------0-|
                                   |---------------------------|

                                   E7
|-3b---0------------0--------------3------3-----3-------------||
|-2b-----3-0-----3---3-------------3-x-x--3-----3-------------||
|------------2/4------4--2p0-------1-x-x--1-----1-------------||
|----------------------------2-----2-x-x--2-----2-------------||
|-------------------------------------------------------------||
|------------------------------0-------------0----------------||


*********************************************************************

SOLO:

 1:18
|-----x------------------12-12-12-12----12-12-------------------------|
|15~~-x---------------------------------------12b------------12b------|
|-----14^(14)p12------------12-14-14p12-14-14-12b------------12b------|
|----------------14p12---14----------------------14--14-12-14---14p12-|
|---------------------------------------------------------------------|
|---------------------------------------------------------------------|


 1:27                                              1:31
|---------------------------12----------12-15-12---x---------x--------|
|--------------12--12-15-16-----12-12-15-----------x---------x--------|
|--------12-14b------------------------------------14-14-12b-x--------|
|12h14-14----------------------------------------------------14p12----|
|---------------------------------------------------------------------|
|---------------------------------------------------------------------|

[ Tab from: http://www.guitartabs.cc/tabs/s/stevie_ray_vaughan/mary_had_a_little_lamb_tab_ver_3.html ]
                   (1/2)                           1:38
|-----------------------12--------12-17b-15-15br-12--15-17-17b-17-15--|
|-------------12-15-15b---12-15-16-----------------17-----------------|
|-------12-14b--------------------------------------------------------|
|--12-14--------------------------------------------------------------|
|14-------------------------------------------------------------------|
|---------------------------------------------------------------------|


                                        1:41
|--------------------------------------------12--------14-12h13p12--12--12|
|17-15-------------------------------------12--12-15-12-----------15--12--|
|-----16-15-14^^-12---12~------------12-14b-------------------------------|
|------------------14-x--14p12--12-14-------------------------------------|
|---------------------x-------14------------------------------------------|
|-------------------------------------------------------------------------|


                (1/2)        1:45
|15-12-------12-------------------------------------------------------|
|-----12---12--15---15-------12-14-14b-14-12--12--14-12---------------|
|-------14b------14b--14-12--12-14-14b-14-12--12--14-12---------------|
|--------------------------14---------------14--14-----14p12--12-14---|
|-----------------------------------------------------------14--------|
|---------------------------------------------------------------------|


 1:48                                    1:50
|-----------------------------------------------12--------------------|
|--12--14-12--14-12--12-14-14b-14-12---------12----12-15b~~~-(17)r-12-|
|--12--14-12--14-12--12-14-14b-14-12--12-14b--------------------------|
|14--14-----14-----14---------------14--------------------------------|
|---------------------------------------------------------------------|
|---------------------------------------------------------------------|


 1:53                                1:56
|------------------------------------------------------------------------|
|12-15b(17)(17)r-(17)r-(17)r(17)~~~-(17)r15-12---------------------------|
|---------------------------------------------(16)r(14)p12--12-14-14b-12~|
|---------------------------------------------------------14-------------|
|------------------------------------------------------------------------|
|------------------------------------------------------------------------|


 1:58                                             2:01
|------12--15-12--12----12------------------------------------------|
|----12--12-----12--15b---12-15-12-----------------12b-12b----------|
|14b------------------------------14b--14-12-------12b-12b----------|
|--------------------------------------------14-12--------14-12--12-|
|--------------------------------------------------------------14---|
|-------------------------------------------------------------------|



|------------------------------14-------------|
|-----------------------12--12-14-12----------|
|-----------------------12--12-14-12----------|
|12----------/14---------------------14-12-14-|  Tisket ...
|---14\12-10----------------------------------|
|---------------12----------------------------|


*********************************************************************

OUTRO:
                    E7                             E7
||--------------------------------|------------------------------|
||------------------3-x-x-3-3-3-x-|----------------3-x-x-3-3-3-x-|
||------------------1-x-x-1-1-1-x-|----------------1-x-x-1-1-1-x-|
||-----0---------2--2-x-x-2-2-2-x-|-------------2--2-x-x-2-2-2-x-|
||-0-2---0-2-0--------------------|-1h2-2-2-0--------------------|
||-------------3-------------0----|-----------3-------------0----|

	                  A7                            E7
|-------------------------3-x-x-3-3-|-------------------------------|
|-------------------------2-x-x-2-2-|-----------------5-x-x-5-5-5-x-|
|---------------2h3p2p0---0-x-x-0-0-|-----------------7-x-x-7-7-7-x-|
|-----2-2-2-5-5-----------2-x-x-2-2-|-----0---------2-6-x-x-6-6-6-x-|
|-2-4-------------------0-----------|-0-2---0-2-0-----7-x-x-7-7-7-x-|
|-----------------------------------|-------------3------------0----|

              B7                                       E7
|-------------------------|-3b-0-----------0-----------3---3-3----3-|
|-------------------1-----|-2b---3-0-----3--3----------3-x-3-3----3-|
|---------------2-2---2---|----------2/4-----4-2p0-----1-x-1-1----1-|
|-------------------------|------------------------2---2-x-2-2----2-|
|-1h2-2-2-0-1-2---------0-|-----------------------------------------|
|-------------------------|--------------------------0----------0---|

*********************************************************************
Questions or comments to RonLyster@hotmail.com
Comments