Stevie Ray Vaughan - Mary Had A Little Lamb Chords & Tabs

 

Mary Had A Little Lamb Chords & Tabs

Stevie Ray Vaughan Chords & Tabs

Version: 2 Type: Tab 0 ratings
1 star 2 stars 3 stars 4 stars 5 stars
comments

Mary Had A Little Lamb Tab

   
Tuning: EADGBE

Slightly distorted
Intro:
                    E7
e|-----------------|----------------------------|
B|-----------------|---5-x-x-5----5-------------|
G|-----------------|---7-x-x-7----7-------------|
D|------0----------|---6-x-x-6----6-------------|
A|--0-2---0-2-0----|---7-x-x-7----7----2222-0---|
E|--------------3--|-0----------0----0--------3-|


e|----------------------------------------------|
B|---5-x-x-5----5-------------------------------|
G|---7-x-x-7----7---------0h2-2h3p2-0-----------|
D|---6-x-x-6----6-----0h2-----------------------|
A|---7-x-x-7----7-0h2---------------------------|
E|-0----------0---------------------------------|
[ Tab from: http://www.guitartabs.cc/tabs/s/stevie_ray_vaughan/mary_had_a_little_lamb_tab_ver_2.html ]
  A7                               E7
e|--------------------------------|--------------
B|---8-x-x-8-----8-8--------------|---5-x-x-5----
G|---6-x-x-6-----6-6--------------|---7-x-x-7----
D|---5-x-x-5-----5-5------0-------|---6-x-x-6----
A|---7-x-x-7-----7-7--0h2---2p0---|---7-x-x-7----
E|-5-----------5----------------3-|-0------------

                       B7             A7
e|--------------------|-------------------------|
B|---5-5--------------|---7-x-x-7--------8-x-x-8|
G|---7-7--------------|---9-x-x-9--------6-x-x-6|
D|---6-6--------------|---8-x-x-8--------5-x-x-5|
A|---7-7---0-2222-0---|---9-x-x-9--------7-x-x-7|
E|-0------3---------3-|-7-----------7-5---------|

     E7
e|---------|---/3-0-------0---------|-----------|
B|------5-5|--------3p0---3---------|-5-x-x-5---|
G|------7-7|------------2---4p2p0---|-7-x-x-7---|
D|------6-6|----------------------2-|-6-x-x-6---|
A|------7-7|------------------------|-7-x-x-7---|
E|-5-0-----|-0----------------------|----------0|


Just repeat these riffs throughout the song. The solo,
just make one up for it cuz no one is gonna get it down
perfectly to every note. Just solo in pentatonic scales
in the key of E.

I also wrote the chords above the tab for all those pussies
who say, "Oh man, this song looks hard. I think I'll just
play the chords." 


Well there ya go, ya basterds.
Comments